Song name
# A B C D E F G H I J K L M N O P Q R S T U V W X Y Z

Black Box Recorder - Child Psychology tab

Verse:

    D              D              D              C  A

E|--2-----------5--2--5--3--------2-----------5--------|
B|--3--------3-----3--------3--5--3--------3-----1--2--|
G|--2--2--3--------2--------------2--2--3--------0--2--|
D|--0--------------0--------------0--------------2--2--|
A|-----------------------------------------------3-----|
E|-----------------------------------------------------|

Verse x3; The third time, there's a second guitar part:

E|--12--10------8--6---------|
B|----------10--------6--11--|
G|---------------------------| Play this four times over the last bar of the
D|---------------------------| verse.
A|---------------------------|
E|---------------------------|

Chorus

    Bm    C7    G    A

E|-----------------------------|
B|-----------------------------|
G|-------------4----6----------|      You can play this as open chords if you want
D|--9----14----5----7----------|      but on the record it sounds like barred ones.
A|--9-x8-14-x8-5-x8-7----------|x8
E|--7----12----3----5----------|



E|------14------19--|
B|--12------17------|
G|------------------|          The little synth fills over the chorus go
D|------------------|          like this.
A|------------------|
E|------------------|

Verse x 2

Chorus

Bridge - 'At that time she stopped what she was doing...' etc

E|--7--5-----------------------------7--5-----------------------------|
B|--------7--5--7--5-----------------------7--5--7--5-----------------|
G|--------------------7--------7-----------------------7--------------|
D|-----------------------7--8-----8-----------------------7--8-----7--|
A|--------------------------------------------------------------8-----|
E|--------------------------------------------------------------------|

Verse x 2

Chorus x 2
Tap to rate this tab
# A B C D E F G H I J K L M N O P Q R S T U V W X Y Z