Song name
# A B C D E F G H I J K L M N O P Q R S T U V W X Y Z

Black Cobra - Chronosphere tab

-----------------------------------------------------------------------------
                             CHRONOSPHERE - Black Cobra
-----------------------------------------------------------------------------

Tuning: Drop A (for 6-string guitars): A E A D F# B

NOTICE: When playing the low A string part "11/12" you must simultaneously pick the 
string and slide up to the higher fret instead of picking the 11th fret and then sliding up.

 |--------------------------------------------------------------------------|
 |--------------------------------------------------------------------------|
 |--------------------------------------------------------------------------|
 |--------------------------------------------------------------------------|
 |--------------------------------------------------------------------------|
 |-0-0-0-0-0-0-0-0-0-0-0-0-0-0-0-0-0-0-0-0-0-0-0-0-0-0-0-0-0-0-0-0-0-0-0-0-0|
PM . . . . . . . . . . . . . . . . . . . . . . . . . . . . . . . . . . . . .

 |--------------------------------------------------------------------------|
 |--------------------------------------------------------------------------|
 |--------------------------------------------------------------------------|
 |--------------------------------------------------------------------------|
 |--------------------------------------------------------------------------|
 |-0-0-0-0-0-0-0-0-0-0-0-0-0-0-0-0-0-0-0-0-0-0-0-0-0-0-0-0-0-0-0-0-0-0-0-0-0|
PM . . . . . . . . . . . . . . . . . . . . . . . . . . . . . . . . . . . . .

 |-------------------------------------------------------------------------|
 |-------------------------------------------------------------------------|
 |-------------------------------------------------------------------------|
 |-------------------------------------------------------------------------|
 |-------------------------------------------------------------------------|
 |-0-0-000-0-0-0-0-0-0-0-0-0-0-0-0-0-0-0000000000-0-0-0-0-0-0-0-0-0-0-0-0-0|
PM . . ... . . . . . . . . . . . . . . .......... . . . . . . . . . . . . .

 |------|
 |------|
 |------|
 |------|
 |------|
 |-0-0-0|
PM . . .

 |---------------------------------------------------------------------------|
 |---------------------------------------------------------------------------|
 |---------------------------------------------------------------------------|
 |---------------------------------------------------------------------------|
 |---------------------------------------------------------------------------|
 |-0-0-0-0-0-0-0-0-10-8-0-8-7-0-0-0-0-0-0-0-0-0-0-0-10-8-0-8-7-0-0-0-0-0-0-0-|

 -------------------------------------------------|
 -------------------------------------------------|
 -------------------------------------------------|X4
 -------------------------------------------------|
 -------------------------------------------------|
 -0-0-0-0-10-8-0-8-7-0-7-8-0-8-10-0-11/12-12-12-12|


 |---------------------------------------------------------------|
 |---------------------------------------------------------------|
 |---------------------------------------------------------------|X2
 |-7-7-7-7-7-7-7-7-7-7-7-7x-5x-7x-7-7-7-7-7-7-7-7-7-7-7-7x-8x-10x|
 |-5-5-5-5-5-5-5-5-5-5-5-5x-3x-5x-5-5-5-5-5-5-5-5-5-5-5-5x-6x--8x|
 |---------------------------------------------------------------|
PM . . .   . . .   . . .          . . .   . . .   . . .

 |---------------------------------------------------------------------------|
 |---------------------------------------------------------------------------|
 |---------------------------------------------------------------------------|
 |---------------------------------------------------------------------------|
 |---------------------------------------------------------------------------|
 |-0-0-0-0-0-0-0-0-10-8-0-8-7-0-0-0-0-0-0-0-0-0-0-0-10-8-0-8-7-0-0-0-0-0-0-0-|

 -------------------------------------------------|
 -------------------------------------------------|
 -------------------------------------------------|X3
 -------------------------------------------------|
 -------------------------------------------------|
 -0-0-0-0-10-8-0-8-7-0-7-8-0-8-10-0-11/12-12-12-12|

 |---------------------------------------------------------------|
 |---------------------------------------------------------------|
 |---------------------------------------------------------------|X2
 |-7-7-7-7-7-7-7-7-7-7-7-7x-5x-7x-7-7-7-7-7-7-7-7-7-7-7-7x-8x-10x|
 |-5-5-5-5-5-5-5-5-5-5-5-5x-3x-5x-5-5-5-5-5-5-5-5-5-5-5-5x-6x--8x|
 |---------------------------------------------------------------|
PM . . .   . . .   . . .          . . .   . . .   . . .

 |--------------------------------------------------------------------------|
 |--------------------------------------------------------------------------|
 |--------------------------------------------------------------------------|
 |--------------------------------------------------------------------------|
 |-0-11/12-13/12-11/12-13/12-11/12-13/12-11/12-13/12-11/12-13/12-11/12-13/12|
 |-0-11/12-13/12-11/12-13/12-11/12-13/12-11/12-13/12-11/12-13/12-11/12-13/12|

 |------------------------------------------------------------------------|
 |------------------------------------------------------------------------|
 |------------------------------------------------------------------------|
 |------------------------------------------------------------------------|
 |-11/12-13/12-11/12-13/12-11/12-13/12-11/12-13/12-11/12-13/12-11/12-13/12|
 |-11/12-13/12-11/12-13/12-11/12-13/12-11/12-13/12-11/12-13/12-11/12-13/12|

 |---------------------------|
 |---------------------------|
 |---------------------------|
 |---------------------------|
 |-10---7---8---10---13--12--|
 |-10---7---8---10---13--12--|

 |---------------------------------------------------------------------------|
 |---------------------------------------------------------------------------|
 |---------------------------------------------------------------------------|
 |---------------------------------------------------------------------------|
 |---------------------------------------------------------------------------|
 |-0-0-0-0-0-0-0-0-10-8-0-8-7-0-0-0-0-0-0-0-0-0-0-0-10-8-0-8-7-0-0-0-0-0-0-0-|

 -------------------------------------------------|
 -------------------------------------------------|
 -------------------------------------------------|X3
 -------------------------------------------------|
 -------------------------------------------------|
 -0-0-0-0-10-8-0-8-7-0-7-8-0-8-10-0-11/12-12-12-12|

 |---------------------------------------------------------------|
 |---------------------------------------------------------------|
 |---------------------------------------------------------------|X4
 |-7-7-7-7-7-7-7-7-7-7-7-7x-5x-7x-7-7-7-7-7-7-7-7-7-7-7-7x-8x-10x|
 |-5-5-5-5-5-5-5-5-5-5-5-5x-3x-5x-5-5-5-5-5-5-5-5-5-5-5-5x-6x--8x|
 |---------------------------------------------------------------|
PM . . .   . . .   . . .          . . .   . . .   . . .

 |--------------------------------------------------------------------------|
 |--------------------------------------------------------------------------|
 |--------------------------------------------------------------------------|
 |--------------------------------------------------------------------------|
 |-0-11/12-13/12-11/12-13/12-11/12-13/12-11/12-13/12-11/12-13/12-11/12-13/12|
 |-0-11/12-13/12-11/12-13/12-11/12-13/12-11/12-13/12-11/12-13/12-11/12-13/12|

 |------------------------------------------------------------------------|
 |------------------------------------------------------------------------|
 |------------------------------------------------------------------------|
 |------------------------------------------------------------------------|
 |-11/12-13/12-11/12-13/12-11/12-13/12-11/12-13/12-11/12-13/12-11/12-13/12|
 |-11/12-13/12-11/12-13/12-11/12-13/12-11/12-13/12-11/12-13/12-11/12-13/12|

 |------------------------------------------------|
 |------------------------------------------------|
 |------------------------------------------------|
 |------------------------------------------------|
 |-11/12-13/12-11/12-13/12-11/12-13/12-11/12-13/12|
 |-11/12-13/12-11/12-13/12-11/12-13/12-11/12-13/12|

 |------------------------------------------------|
 |------------------------------------------------|
 |------------------------------------------------|
 |------------------------------------------------|
 |-10---7---8---10---7--8--10--12--0---x----------|
 |-10---7---8---10---7--8--10--12--0---x----------|


************************************

| /   slide up
| \   slide down
| x   mute note

************************************
Tap to rate this tab
 
# A B C D E F G H I J K L M N O P Q R S T U V W X Y Z