Song name
# A B C D E F G H I J K L M N O P Q R S T U V W X Y Z

Black Country Communion - Black Country tab

tab by stengelb
Standard Tuning

sorry, no solo. I'm just not that good of a tabber.

intro (bass with guitar following using the same pattern) and 1/2 verse
alternate picking is a must (if using a pick)

G|--------------------------------------------------.|  repeats
D|--------------------------------------------------.|
A|---7-7-7/8\7p5--7-7-7/8\7p5--7-7-7/8\7p5------5----|
E|------------------------------------------5-7------|

second part of verse

G|-------------------------------------------------|  repeat x2
D|---7-7-7/8\7p5-7-7-7/8\7p5--7-7-7/8\7p5-----5----|
A|----------------------------------------5-7------|
E|-------------------------------------------------|

chorus (bass)

G|--------|--------|--------|--------|
D|--------|--------|--------|--------|
A|--------|--------|--------|-7-5----|
E|-5-5----|-5-5----|-5-5----|-----5--|

chorus (guitar)

e|--------|--------|--------|-----------|
b|--------|--------|--------|-----------|
g|--------|--------|--------|-9-7-------|
d|-7-7----|-7-7----|-7-7----|-9-7--7----|   and then back to verse patterns
a|-7-7----|-7-7----|-7-7----|-7-5--7----|
E|-5-5----|-5-5----|-5-5----|------5----|
Tap to rate this tab
 
# A B C D E F G H I J K L M N O P Q R S T U V W X Y Z