Song name
# A B C D E F G H I J K L M N O P Q R S T U V W X Y Z

Black Country Communion - Save Me tab

Black Country Communion - Save Me

Riff 1:

|---------------------------------------|
|---------------------------------------|
|-----------------------------7---7-4---|
|-----------4---------------4-7-4-7-4-5-|
|-----4-5-7-----4-----4-5-7---5-4-5-2-5-|
|-7-8---------7---3-7-----------2-----3-|
                             |D|F#|D|B|G|

Riff 2:

|-------------------------------------|
|-8-8-8-8-7-5-5-5h7-2-----------------|
|---------------------4-4-4-4-3-------|
|-------------------------------4-2-4-|
|-------------------------------------|
|-------------------------------------|
Tap to rate this tab
# A B C D E F G H I J K L M N O P Q R S T U V W X Y Z