Song name
# A B C D E F G H I J K L M N O P Q R S T U V W X Y Z

Black Country Communion - Smokestack Woman tab

Black Country Communion - Smokestack Woman

Riff 1:

|-------------------------|
|-------------------------|
|-------------------------|
|-7-7-6-6-5-5-------------|
|-7-7-6-6-5-5-7-7-6-6-5-5-|
|-------------7-7-6-6-5-5-|

Riff 2:

|---------------------| Key:
|---------------------|
|---------------------| h = hammer on
|-7-7-5-----5-------7-|
|-------5h7---3-3-----|
|-----------------5---|

Chords are A,C and D(maybe more)
Tap to rate this tab
# A B C D E F G H I J K L M N O P Q R S T U V W X Y Z