Song name
# A B C D E F G H I J K L M N O P Q R S T U V W X Y Z

Black Country Communion - Faithless tab

Strophe

Teil 1 2x                                                                                   Teil 2
D#|--------------------|---------------------------|---------------------|---------------------|
A#|-3------------------|---------------------------|---------------------|---------------------|
F#|-0----0---2-----2---|---------------------------|-5----7----8----10---|-11---13---15---16---|
C#|-0----2---3-----3---|-------3---------5-----2---|---------------------|---------------------|
G#|--------------------|-3--5-----5--3---5-----2---|-3----5----6----8----|-9----11---13---14---|
D#|--------------------|-----------------3-----0---|---------------------|---------------------|

Refrain

D#|-------3---------|-3----------------|-------3---------|-1------|--------|----------|
A#|-------3---------|-3-----4----3-----|-------3---------|-1------|-4------|-3--------|
F#|-------3---------|-5-----5----5-----|-------3---------|-2------|-3------|-2--------|
C#|-5-----5-----5---|-5-----5----5-----|-5-----5-----5---|-3------|-1------|-0--------|
G#|-5-----5-----5---|-3----------------|-5-----5-----5---|-3------|--------|----------|
D#|-3---------------|------------------|-3---------------|-1------|-------------------|


                                                                         Support Guitar Solo
D#|---------------------------|---------------------------------|
A#|-6--6---6----6----6--------|-6--6----------------------------|
F#|-5--5---5----5----5--------|-5--5----------------------------|
C#|-3--3---3----3----3--------|-1--1----------------------------|
G#|-3--3---3----3----3--------|---------------------------------|
D#|---------------------------|---------------------------------|

|-------------------------------------------------|
|-------------------------------------------------|
|-------------------------------------------------|
|-5--5--------------5--5--------------------------|
|-5--5--------------5--5--------------------------|
|-3--3--------------3--3--------------------------|
Tap to rate this tab
 
# A B C D E F G H I J K L M N O P Q R S T U V W X Y Z