Song name
# A B C D E F G H I J K L M N O P Q R S T U V W X Y Z

Black Crowes - Wee Who See The Deep tab

Help us improve GuitareTab! Take a short survey!
-------------------------------------------------------------------------------
			     WEE WHO SEE THE DEEP - Black Crowes
-------------------------------------------------------------------------------
Tabbed by: sugapablo
Album: Warpaint (2008)


Intro and verses:
e|---------------------------------------------------------------------------|
B|---------------------------------------------------------------------------|
G|---------------------------------------------------------------------------|
D|-9-9-9-9-9---7-7-7-7-7---5-5-5-5-5-----------5-----------------------------|
A|-9-9-9-9-9---7-7-7-7-7---5-5-5-5-5-------5-----7---------------------------|
E|-7-7-7-7-7---5-5-5-5-5---3-3-3-3-3---5-7---7-------------------------------|

Put forever in your mind
Let go of space and time
Yeah say it is we who see the deep
It is we that the lesson teach



Chorus:
e|------------------------------------------------------------------------------|
B|-9------------------------------------------9---------------------------------|
G|-9------------------------------------------9---------------------------------|
D|-9------------------------------------------9---------------------------------|
A|-7---------------------------------5---5----7------------------------5---5----|
E|---------------------------------7---7---0-------------------------7---7---0--|
     Do you even know this place               Nowhere is over  

e|-------------------------------------------|
B|-9-----------------------------------------|
G|-9-----------------------------------------|
D|-9-----------------------------------------|
A|-7---------------------------------5---5---|
E|---------------------------------7---7---0-|
     To find our way back to grace           

e|------------------------------------------------------|
B|-9-----------------------10-10-10-10---12-12-12-12----|
G|-9-----------------------10-10-10-10---12-12-12-12----|
D|-9-----------------------10-10-10-10---12-12-12-12----|
A|-7-----------------------8--8--8--8----10-10-10-10----|
E|------------------------------------------------------|
     Nowhere is nothing at all




Chords over guitar solo:
e|-------------------------------------------------------------------------------|
B|-------------------------------------------------------------------------------|
G|--------5-----------5-5-------------5-5----------------------------------------|
D|-7------5--5--7-----5-5--5-5--7-----5-5--5-5--7-7--7-7-----3-3--3-3--5-5--5-5--|
A|-7------3--5--7-----3-3--5-5--7-----3-3--5-5--7-7--7-7-----3-3--3-3--5-5--5-5--|
E|-5---------3--5----------3-3--5----------3-3--5-5--5-5-----1-1--1-1--3-3--3-3--|



Outro:
e|---------------------------------------------------------------------------|
B|---------------------------------------------------------------------------|
G|---------------------------------------------------------------------------|
D|-9-----------7-----------5-------------------------------------------------|
A|-9-----------7-----------5-------------------------------------------------|
E|-7-----------5-----------3-------------------------------------------------|



Related for Wee Who See The Deep tab