Song name
# A B C D E F G H I J K L M N O P Q R S T U V W X Y Z

Black Crowes - No Speak No Slave tab

Tabbed By: Graham Johnson

Song: No Speak No Slave

Album: The Southern Harmony And Music Companion

Here goes, can't believe no ones tried it yet...
Standard Tuning
Capo sounds good on third fret but I'll tab it without the capo.

Intro (need Capo on 3rd fret): Sorry but thats how they do it.
e-----------------|-----------------------|
B----3------------|----3-----5------------|
G---------3h-0o---|--------------3h-0o----|
D-/3----3-------5-|-/3---3/5---5-------5~-|
A-----------------|-----------------------|
E-----------------|-----------------------|
Play first one once.         then play this one 7 times...

Chorus:
e-----------------------------|----------------------------|
b-----------------------------|----------------------------|
g-----------------------------|----------------------------|
d-----------------------------|----------------------------|
a-4-4-4-5-5-5-6-6-6--6-8------|-6-6-6-7-7-7-8-8-8--6-8-----|
E--------------------4-6-6~---|--------------------4-6-6~--|


Verse:
e-----------------------|            |-------------------------|
b-----------------------|            |-------------------------|
g-8-----5^-5^-5^-3---3~-|            |-8-----8^-8^-8^-7-8-7~---|
d-8----------------5----|            |-8-----------------------|
a-6---------------------|            |-6-----------------------|
E-----------------------|Or play|------------------------------|


Solo:
Hahahahahaha, uhh I kinda wing it here cuz I'm to lazy to figure it out. But If you know 
post it. Or
You could _______ some stuff and it might come to you magically.

Ending (3:53)
e-------------------------|
b-------------------------|
g-7---7-7---5-7-7---5-7-7-|
d-8---8-8---6-8-8---6-8-8-|
a-8---8-8---6-8-8---6-8-8-|
E-6---6-6---4-6-6---4-6-6-|And do that a couple times, there you go. The End.
Tap to rate this tab
 
# A B C D E F G H I J K L M N O P Q R S T U V W X Y Z