Guitaretab - guitar tabs
Song name
# A B C D E F G H I J K L M N O P Q R S T U V W X Y Z

Black Crowes - She Talks To Angels tab

                           The Black Crowes

                          She Talks To Angels


Tabbed By Stephen Carass/Quaver


Hey, on this tab im going to tab both the standard tuning version and the open E Tuning.
original one is done Open E, but for beginners; I'm going to do standard to save you
the trouble.

I heard once heard in a guitar magazine - Total Guitar (Europe's best selling guitar
- that this song was done in Open D actually, but bollocks to it. Enjoy anyway.


D = strumb down

U = strumb up

Intro:

Note: Let the open notes on the E and B string ring thoughout.


Standard Tuning Version:

e---------0-------------0--------0--------------0-----|
B---4s5-----5-4-------0---0-----0-0-------------0-----|
G---------------6--4----------------------------1-----|
D---------------------------6h7-----(7)-7p6-----2-----|    X2
A-------------------------------------------7\--2-----|
E-----------------------------------------------0-----|


e--0-0-0---0--0-00-0-0-0-0-----------|------X----<7>------|
B--0-0-0---0--0-00-0-0-0-0-----------|-----<5>---<7>------|
G--1-1-1---1--1-11-2-1-2-1-----------|-----<5>---<7>------|
D--2-2-2---2--2-22-2-2-2-2-----------|-----<5>----x-------|
A--2-2-2---2--2-22-2-2-2-2-----------|--------------------|
E--0-0-0---0--0-00-0-0-0-0-----------|--------------------|

   D U D      D  D DU D D D D

e--0-00-0-0-0-0-------|
B--0-00-0-0-0-0-------|
G--1-11-2-1-2-1-------|
D--2-22-2-2-2-2-------|
A--2-22-2-2-2-2-------|
E--0-00-0-0-0-0-------|

   D DU D D D D

e---------------------------------------|
B-------------0-----2--------0----------|
G---------------1-----1-----------------|
D---2h4-4-(4)\----2-----2--2---4---2----|
A---------------------------------------|
E---------------------------------------|

e--0-00-0-0-0-0-------|
B--0-00-0-0-0-0-------|
G--1-11-2-1-2-1-------|
D--2-22-2-2-2-2-------|
A--2-22-2-2-2-2-------|
E--0-00-0-0-0-0-------|

   D DU D D D D


e---0-0--0--0--0--0--0------------|
B----5--4-------------------------|
G---------6--4--2--1-----1--------|
D----------------------2----4--2--|
A---------------------------------|
E---------------------------------|


Open E Tuning version:

e-------0--------------0----------0-------------0------|
B---4s5-----5-4s2-0--0---0-------0-0------------0------|
G#--------------------------0h1------(1)-1h0----0------|
E--------------------------------------------0--0------|  X2
B------------------------------------------------------|
E------------------------------------------------------|


e--0-0-0---0--0-0--0-0---0-----------|-----<12>------------|
B--0-0-0---0--0-00-0-0-0-0-----------|-----<12>---<7>------|
G#-0-0-0---0--0-00-1-0-1-0-----------|-----<12>---<7>------|
E--0-0-0---0--0-00-2-0-2-0-----------|-----<12>---<7>------|
B--0-0-0---0--0-0--0-0-0-0-----------|---------------------|
E--0-0-0---0--0-0--0-0-0-0-----------|---------------------|

   D U D   D  D DU D D D D


e--0-0----0-0-0-------|
B--0-00-0-0-0-0-------|
G#-0-00-1-0-1-0-------|
E--0-00-2-0-2-0-------|
B--0-0--0-0-0-0-------|
E--0-0--0-0-0-0-------|

   D DU D D D D

e----------------------------------------------------|
B----------------------------------------0-----------|
G#------0-----3-p-0---5-p-0---3-p-0------------------|
E---2h4-------------0-------0-------0--0---2p0-------|
B----------------------------------------------------|
E----------------------------------------------------|

e--0-0----0-0-0-------|
B--0-00-0-0-0-0-------|
G#-0-00-1-0-1-0-------|
E--0-00-2-0-2-0-------|
B--0-0--0-0-0-0-------|
E--0-0--0-0-0-0-------|

   D DU D D D D
[ Tab from: http://www.guitaretab.com/b/black-crowes/1696.html ]
e-0---0---0---0---0---0---0---0-|
B---5---4-----------------------|
G#-----------5---3---1---0------|
E---------------------------0---|
B-------------------------------|
E-------------------------------|

Verse:

Standard Tuning Version:

e---0--0-00-0-0-0-0-----------|
B---0--0-00-0-0-0-0-----------|
G---1--1-11-2-1-2-1-----------|
D---2--2-22-2-2-2-2-----------|     X4
A---2--2-22-2-2-2-2-----------|
E---0--0-00-0-0-0-0-----------|

    D  D DU D D D D

e---0---|
B---0---|
G---1---|    Strumb like a bitch, which leads to the chorus.
D---2---|
A---2---|
E---0---|

If your jamming to this in standard and you have a second guitarist or a band; the other
could strumb both of these E notes from the same octave to create the dramatic ringing
just before the chorus. I thought of putting this down because you don't get the correct 
if you play just the E, but it sounds awesome still even if you don't use the
E notes.


e---0----|
B---5----|
G--------|
D--------|
A--------|
E--------|

Open E Tuning Version:

e---0--0-0--0---0-0-----------|
B---0--0-00-0-0-0-0-----------|
G#--0--0-00-1-0-1-0-----------|
E---0--0-00-2-2-2-2-----------|     X4
B---0--0-00-0-0-0-0-----------|
E---0--0-0----0-0-0-----------|

    D  D DU D D D D

Strumb this, which leads on to the chorus

e----0---|
B----5---|
G#---0---|
E----0---|
B----0---|
E----0---|

Chorus:

Note: No singing in the first chorus


Standard tuning version:

e---7--7------------|---5--5------------|
B---7--7--7---7-7---|---5--5--5---5-5---|
G---8--8-88--88-8---|---6--6-66--66-6---|
D---9--9-99--99-9---|---7--7-77--77-7---|
A---9--9-99--99-9---|---7--7-7---7--7---|
E---7--7-7---7--7---|---5--5--------5---|

    D  D DU  DU D       D  D DU  DU D


e---0--0-00-0-0-0-0-----------|
B---0--0-00-0-0-0-0-----------|
G---1--1-11-2-1-2-1-----------|
D---2--2-22-2-2-2-2-----------|
A---2--2-22-2-2-2-2-----------|
E---0--0-00-0-0-0-0-----------|

    D  D DU D D D D


e---0---|
B---0---|
G---1---|    Once again, Strumb like a bitch.    X2
D---2---|
A---2---|
E---0---|


When the chorus ends. play the harmonics played at the start of the song, a little bit
though.


Open E tuning version:

e---7--7------------|---5--5------------|
B---7--7--7---7-7---|---5--5--5---5-5---|
G#--7--7-77--77-7---|---5--5-55--55-5---|
E---7--7-77--77-7---|---5--5-55--55-5---|
B---7--7-77--77-7---|---5--5-5---5--5---|
E---7--7-7---7--7---|---5--5--------5---|

    D  D DU  DU D       D  D DU  DU D

e---0--0-0--0---0-0-----------|
B---0--0-00-0-0-0-0-----------|
G#--0--0-00-1-0-1-0-----------|
E---0--0-00-2-2-2-2-----------|
B---0--0-00-0-0-0-0-----------|
E---0--0-0----0-0-0-----------|

    D  D DU D D D D

Strumb this...

e----0---|
B----5---|
G#---0---|
E----0---|    X2
B----0---|
E----0---|

Bridge:

Note: miss the ocassional A bass note.

Standard tuning version:


e---0---0---0-0--0-0--0-|-------0-0-0------0-0-----|
B---2---2---2-2--2-2--2-|-----0-0-0-0-0--0-0-0-----|
G---2---2---2-2--2-2--2-|--1--2-2p1-1-1--2-2p1--1--|
D---2---2---2-2--2-2--2-|--2--2-2-2---2--2-2-2--2--|   X3
A---0---0---0-0--0-0--0-|--2--2-2-2---2--2-2-2--2--|
E-----------------------|--0--0-0-0------0-0-0--0--|


e------|
B--(2)-|
G---2--|
D---2--|   Palm mute for 2 bars.... i think.
A---0--|
E------|


Open E Tuning Version:

e---5---5---5-5--5-5--5-|-------0-0-0------0-0-----|
B---5---5---5-5--5-5--5-|-----0-0-0-0-0--0-0-0-----|
G#--5---5---5-5--5-5--5-|--0--1-1p0-0-0--1-1p0--0--|
E---5---5---5-5--5-5--5-|--0--0-0-0---0--0-0-0--0--|   X3
B---5---5---5-5--5-5--5-|--0--0-0-0---0--0-0-0--0--|
E---5---5---5-5--5-5--5-|--0--0-0-0------0-0-0--0--|


e------|
B------|
G#-----|
E--(5)-|   Once again, Palm mute for 2 bars.... i think.
B---5--|
E---5--|

Im sure you can figure out the order and the interlude. The interlude is built from the
of the intro.

Hope you have enjoyed, please rate, comment and correct.

Thanks
Related for She Talks To Angels tab
She Talks To Angels chords by Black Crowes