Song name
# A B C D E F G H I J K L M N O P Q R S T U V W X Y Z

Black Crowes - P25 London tab

Help us improve GuitareTab! Take a short survey!
The Black Crowes
Song Title: P.25 London
TBC Original? Yes
Written By: Chris and Rich Robinson
Recording Session: Tall, Amorica
Record: Tall (released as "Lost Crowes"), Amorica
Live Debut: 10/22/1994
Shows: 98 times played live
Notes: This song was originally recorded and finished for Tall and then rerecorded for 
Amorica album.

----------------------
The above information was taken from www.crowesbase.com

Tuning: DbGbDbGbBbDb (Open G, down one half step)

Intro
Db--------------------------------|
Bb--------------------------------|
Gb--------------------------------|
Db--------5--------------3--------|
Gb--5-6-7---7-5p0--3-4-5---5-3p0--|
Db--------------------------------|

This is played once during the intro of the song, and is repeated many times during the outro.

Verse
Db-----------------------------------|
Bb-----------------------------------|
Gb--3-3-3-3-3-3-3-3p0----3--3-x---3--|
Db--3-3-3-3-2-2-2-2p0----2--2-x---2--|
Gb---------------------0--------0----|
Db-----------------------------------|

Pre-chorus/Solo rhythm
Db-------------------------------------------------------|
Bb------1-----1------------------------------------------|
Gb----0-----0---------0-------0-------0-------0-------0--|
Db--2-----3-----------0-------0-------0-------0-------0--|
Gb--------------2b3r2-0-2b3r2-0-2b3r2-0-2b3r2-0-2b3r2-0--|
Db-------------------------------------------------------|

Chorus
Db----------------------------------------|
Bb----------------------------------------|
Gb------------------2-2--5-5-----5-5------|
Db--------5-------0-2-2--5-5-----5-5------|
Gb--5-6-7---7-5-3-0-2-2------7-7-----7-7--|
Db---------------------------7-7-----7-7--|

Outro
Db--------------------------------|
Bb--------------------------------|
Gb--------------------------------|
Db--------5--------------3--------|
Gb--5-6-7---7-5p0--3-4-5---5-3p0--|
Db--------------------------------|

As stated above, repeat the intro riff many times before ending on this chord

Db-----
Bb--0--
Gb--0--
Db--3--
Gb--2--
Db-----
Related for P25 London tab