Song name
# A B C D E F G H I J K L M N O P Q R S T U V W X Y Z

Black Crowes - Go Tell The Congregation tab

The Black Crowes
Song Title: Go Tell The Congregation
TBC Original? Yes
Written By: Chris and Rich Robinson
Recording Session: By Your Side
Record: By Your Side
Live Debut: 10/28/1998
Shows: 64 times played live
Related Song: Nightingale Song
Notes: One of the final songs submitted for By Your Side. This and "Diamond Ring" were 
two songs that delayed release of the By Your Side album, which had been scheduled for 
in September, 1998, eventually delayed to January, 1999.

---------------------------
The above information was taken from www.crowesbase.com

Tuning: DGDGBD (Open G)

Intro/Solo Rhythm:
D--0----0--|
B--6----8--|
G--0----0--|
D--7----9--|
G--0----0--|
D----------|

Verse:
D--------------------------|
B--------------------------|
G--------------------------| x4
D--------------------------|
G--7-5-7-5--7---------5----|
D-------------4-5-6-7---7--|

D--------------------------|
B--------------------------|
G--------------------------| x2
D--------------------------|
G--5-3-5-3--5---------3----|
D-------------2-3-4-5---5--|

D--------------------------|
B--------------------------|
G--------------------------| x2
D--------------------------|
G--7-5-7-5--7---------5----|
D-------------4-5-6-7---7--|

Chorus:
D------------------------------------------|
B--0--0-1-3-1-1-0-3------------------------|
G--0--0-0-0-0-0-0-2------------------------| x1
D--0--0-2-3-2-2-0-0---------3-----5--------|
G--0--------------0--3-4-5----5-3---3b4p0--|
D------------------------------------------|

		      |1st, 2nd ending
D---------------------|-----------------------|
B--0-0-1-3-1p0-0-3--3-|-----------------------|
G--0-0-0-0-0p0-0-2--2-|-----------------------| x3
D--0-0-2-3-2p0-0-0--0-|--------3-----5--------|
G--0------------------|-3-4-5----5-3---3b4p0--|
D---------------------|-----------------------|

3rd ending
D------------------------|
B------------------------|
G------------------------|
D------------------------|
G--3-4-5--5-4-3----------|
D---------------5-2-3-4--|
Tap to rate this tab
# A B C D E F G H I J K L M N O P Q R S T U V W X Y Z