Song name
# A B C D E F G H I J K L M N O P Q R S T U V W X Y Z

Black Crowes - Cypress Tree tab

The Black Crowes
Song Title: Cypress Tree
TBC Original? Yes
Written By: C.R & R.R.
Recording Session: Lions
Record: Lions
Live Debut: 05/03/2001
Shows: 59 times played live
Notes: An early studio version of this song has vastly different lyrics.

-------------------------------
The above information was taken from www.crowesbase.com

Tuning: DGDGBD (Open G)

Intro:
D-------------------|
B--7----1-0---0--5--|
G--7----2---2----5--| x2
D--x----x--------x--|
G--7----2--------5--|
D--0----------------|

Verse:
D----------------------------------------------------------------------|
B--7----0h1-----5--6p5---0-----8-8p7---7----0h1-----5------------------|
G--7---------2--5------5---0-----------7---------2--5----0-5-0--0-5-0--|
D--x------------x----------------------x------------x----0-x-0--0-x-0--|
G--7------------5------------0---------7------------5----0-5-0--0-5-0--|
D----0-------------------------------0---------------------------------|

I count at least three rhythm guitars playing during the verse: two electrics (one in
channel) and one acoustic in the left channel playing chords, though there may be another
in there somewhere.  Neither of the two electric guitars play the same thing twice, so 
above tab is a general approximation of what to play.  Have fun with it.

Chorus:
D-------------------------------------------------------|
B-------------------------------------------------------|
G--------------------5-5--6-6--7------------------------| x4
D--3-3-3-4-4-4-5-5-5-5-5--6-6--7------------------------|
G--5-5-5-6-6-6-7-7-7-5-5--6-6--7------------------------|
D--3-3-3-4-4-4-5-5-5--------------5p0-3p0-0--5p0-3p0-0--|

Interlude:
D-----------------------------------------|
B--------3--------5--------3--1p0-0--5-5--|
G--0-0-0-4--0-0-0-5--0-0-0-4--2p0-0--5-5--| x4
D--0-0-0-x--0-0-0-x--0-0-0-x--x---0--x-x--|
G--0-0-0-4--0-0-0-5--0-0-0-4--2p0-0--5-5--|
D-----------------------------------------|

Ending:
D-----------------------------------------------------|
B-----------------------------------------------------|
G-----------------------------------------------------|
D------5------4------5------4------5------4------5----|
G--7-7---7--7---7--7---7--7----7-7---7--7---7--7---7--|
D--0-0---0--0---0--0---0--0----0-0---0--0---0--0---0--|

This is as close as I could get for the end.
Tap to rate this tab
# A B C D E F G H I J K L M N O P Q R S T U V W X Y Z