Song name
# A B C D E F G H I J K L M N O P Q R S T U V W X Y Z

Black Crowes - Oh Josephine tab

The Black Crowes
Song Title: Oh Josephine
TBC Original? Yes
Written By: Chris and Rich Robinson
Recording Session: Warpaint
Record: Warpaint
Live Debut: 03/02/2008
Shows: 67 times played live
Notes: This song was recorded in July, 2007 at Allaire Studios, Shokan, NY. It was
by Paul Stacey and The Black Crowes.

“It's probably the song I'm most proud of on this album. The last verse sums up a lot
too late to play it safe/So let's let it all ride’]. That's our attitude. There's no
for anybody here to ever hold back. We're doing this full bore, and it's gonna be open. 
always thought our best writing was our ballads. People want to identify the Black 
as
guitar band–which we are–but I think ‘Oh Josephine’ is the quintessential Black Crowes 
and the coda at the end says, ‘We know who we are.’ It's one of those songs you can put 
at 5:30 in the morning and decide whether you're going to keep going or put it 
down for the night.” - Chris Robinson

--------------------------
The above information was taken from www.crowesbase.com

Tuning: DGDGBD (Open G)

Intro/Verse:
D--------------------------------------|
B--3p0---------0----6--5--------1------|
G------2p0-2/4------5--5----------0----|
D-------------------7--5---------------|
G----------------0--5--5----0h2-----0--|
D--------------------------------------|

Chorus (with slide):
D-----------------------|
B-----------------------|
G--4/5-/7\5----2/5-2\0--|
D-----------------------|
G--4/5-/7\5----2/5-2\0--|
D-----------------------|

Interlude (with slide):
D--/10---/10-------10\--/5--------------|
B--/10-------10------------5-----5------|
G--/10----------10-----------5-----5----|
D--/10-------------------------5-----5--|
G--/10----------------------------------|
D---------------------------------------|

D--/10-------10----10--------5----------------|
B--/10-10-------10----10-------5--------------|
G--/10----10-------------10\-----5--5--5--5\--|
D--/10----------------------------------------|
G---------------------------------------------|
D---------------------------------------------|

D--/10-------10------10---------5-----5-------5-------|
B--/10-10-------10------10--------5-----5-------5-----|
G--/10----10-------10------10\------5-----5-------5\--|
D--/10--------------------------------------5---------|
G-----------------------------------------------------|
D-----------------------------------------------------|

D--3-------3-----3/--10----------------10\--/5--|
B----3-------3---3/-----10------10-----10\--/5--|
G------3-------3-3/--------10------10--10\--/5--|
D--------3-------3/--------------------10\--/5--|
G-----------------------------------------------|
D-----------------------------------------------|

Outro:
D--------------------------------------|
B--------------------------------------|
G----0---0---0---0---0---0-------------|
D------------------2---4---5--5--------|
G--0---2---4---5----------------4\2p0--|
D--------------------------------------|
Tap to rate this tab
 
# A B C D E F G H I J K L M N O P Q R S T U V W X Y Z