Song name
# A B C D E F G H I J K L M N O P Q R S T U V W X Y Z

Black Crowes - Paint An 8 tab

The Black Crowes
Song Title: Paint An 8
TBC Original? Yes
Written By: Chris and Rich Robinson
Recording Session: Band
Record: Band (released as "Lost Crowes")
Live Debut: 06/27/1997
Shows: 27 times played live
Notes: This song was also worked on during the Lions sessions, ultimately the
original intro was rearranged and used as the intro to Come On

---------------------------------------
The above information was taken from www.crowesbase.com

This was originally transcribed by Greg Shuchart.  I made two small changes.

Tuning: CFCFAC (Open F- open G down one full step)

Intro:
C--0-------------|
A--1----0h1------|
F--2--------2p0--|
C--3-------------|
F--0-------------|
C----------------|

Main/Chorus Riff:
C---------------------------------------------------|
A-----------------------------------0------0h1------|
F--3-3--x-x-3-3--x-x-3-3--x-x-3-3p0-0--x-x-----2p0--|
C--2-2--x-x-2-2--x-x-2-2--x-x-2-2p0-0--x-x----------|
F--0-0--x-x-0-0--x-x-0-0--x-x-0-0------x-x----------|
C---------------------------------------------------|

Verse:
C-------------------0-------------------0-------------------0-------------------0--|
A-------------------1-------------------0-------------------1-------------------0--|
F--------0----------0--------0----------0--------0----------0--------0----------0--|
C--0h1h2---2-1-0----2--0h1h2---2-1-0----0--0h1h2---2-1-0----2--0h1h2---2-1-0----0--|
F----------------0-------------------0-------------------0-------------------0-----|
C----------------------------------------------------------------------------------|

C-------------------0-------------------0-------------------0-------------------0--|
A-------------------1-------------------1-------------------1-------------------0--|
F--------0----------0--------0----------2--------0----------0--------0----------0--|
C--0h1h2---2-1-0----2--0h1h2---2-1-0----3--0h1h2---2-1-0----2--0h1h2---2-1-0----0--|
F----------------0-------------------0-------------------0-------------------0-----|
C----------------------------------------------------------------------------------|

C-----------|
A--0-0------|
F--0-0-2p0--|
C-----------|
F-----------|
C-----------|

Solo Rhythm:
C---------------------------------------|
A---------------------------------------|
F--------------0---------0-----0-----0--|
C--------3-----------------2p0---2p0----|
F--3-4-5---5-3---3p0-3p0----------------|
C---------------------------------------|
Tap to rate this tab
# A B C D E F G H I J K L M N O P Q R S T U V W X Y Z