Song name
# A B C D E F G H I J K L M N O P Q R S T U V W X Y Z

Black Crowes - Soul Singing tab

The Black Crowes
Song Title: Soul Singing
TBC Original? Yes
Written By: Chris and Rich Robinson
Recording Session: Lions
Record: Lions, Live
Live Debut: 04/01/2001
Shows: 358 times played live
Notes: An extended Jam was added to the end of the song beginning 3/19/2005: 
that was Marc Ford's official return to the band.

----------------------------------
The above information was taken from www.crowesbase.com

Tuning: CFCFAC (Open F- open G down a full step)

Intro/Verse Riff:
c-----------------------------------------------------------|
A-----------------------8--------------------------------8--|
F------0-----0-------------0-----0-----0-------------0------|
C------------------9-------------------------0h9p0----------|
F--0h9---0h9---0h9----0------0h9---0h9---0h9-------9---0----|
C-----------------------------------------------------------|

C---------------------------------|
A------6-----------6-----------6--|
F------------0-----------0--------|
C--0h7---0h7---0h7---0h7---0h7----|
F---------------------------------|
C---------------------------------|

C---------------------------------|
A------1-----1-----1-----1-----1--|
F---------------------------------|
C--0h2---0h2---0h2---0h2---0h2----|
F---------------------------------|
C---------------------------------|

This is only played once in the song, after the intro verse:

C---------------------------------------|
A--0-3-5b6r5-3h5p3p0-0-1-3b4r3-1-0------|
F----------------------------------0----|
C---------------------------------------|
F------------------------------------0--|
C---------------------------------------|

This riff is played between/after the verses/right before/after the choruses:

C------------------------------------------------------------|
A------------------------------------------------------------|
F------0-----0-----0-----0---0------0-----0-----0-----0---0--|
C------------------------------------------------------------|
F--0h9---0h9---0h9---0h9---0----0h9---0h9---0h9---0h9---0----|
C------------------------------------------------------------|

Chorus:
C-------------------------------------|
A--0--1--3--5--7\--3--5--1--1p0--1p---|
F--0--0--0--0--0\--0--0--0--0----0----|
C--0--0--0--0--0\--0--0--0--0----0----|
F--0--2--4--5--7\--4--5--2--2p0--2p0--|
C-------------------------------------|

Interlude:
C------------------------------------------------------|
A--------7------7-----7-------------7-----7-----7------|
F----7-----7------7-----7---7-----7---7-----7-----7----| x2
C------------------------------------------------------|
F--7---7-----7------7-----7---6/7-------7-----7-----7--|
C------------------------------------------------------|

C------5--------------------|
A--------5---5-----7--------|
F----7-----7-----7---7---7--| x2
C---------------------------|
F--6-----------7-------7----|
C---------------------------|

C---------------------------|
A------0-----------7--------|
F--------0---0-------7---7--| x4
C----------0----------------|
F----7-----------7-----7----|
C--5-----------0------------|

During many of the post-hiatus live versions, this song featured a long spacey jam after 
interlude in the key of C.  The jam was usually split into two parts, and was bridged 
by a distinct riff (Jam Riff 1):

Jam Riff 1:
C--------------------------------------------|
A--------------------------------------------|
F------------7-7-----------------7-9b11-7----|
C--7-7-7-7-9-----9--0--7-7-7-7-9----------0--|
F--------------------------------------------|
C--------------------------------------------|

After this, the improvisation continued and each band member went in their own direction 
it was time to bring the song back together for a final chorus.  This was done using 
Riff 2:

Jam Riff 2:
C-----------------------|
A--5--3--1--0--1--3--7--|
F--0--0--0--0--0--0--7--| x3
C--0--0--0--0--0--0--x--|
F--5--4--2--0--2--4--7--|
C--------------------0--|

Hold/strum the C chord for a few measures each time the first part to this riff is played.

C--------------------|
A--5--3--1--0--1--3--|
F--0--0--0--0--0--0--| x3
C--0--0--0--0--0--0--|
F--5--4--2--0--2--4--|
C--------------------|

C-----------------|
A--5--3--1--0--0--|
F--0--0--0--0--0--|
C--0--0--0--0--0--|
F--5--4--2--0--0--|
C-----------------|
Tap to rate this tab
# A B C D E F G H I J K L M N O P Q R S T U V W X Y Z