Song name
# A B C D E F G H I J K L M N O P Q R S T U V W X Y Z

Black Crowes - Greasy Grass River tab

The Black Crowes
Song Title: Greasy Grass River
TBC Original? Yes
Written By: Chris and Rich Robinson
Recording Session: Lions
Record: Lions, Live
Live Debut: 02/03/2001
Shows: 143 times played live
Notes: none at this time.

---------------------------------------
The above information was taken from www.crowesbase.com

Tuning: EADGBE (Standard)

Intro/Verse:
E--------------|
B--------------|
G--7-----5-----|
D--6--7--4--5--|
A--7--6--5--4--|
E-----7-----5--|

Listen to the song for timing.  It sounds like Rich throws in a few open B and G strings 
the verses, but these are the basic chords.

Chorus:
E------------------------------------------|
B------------------------------------------|
G------------------------------------------|
D------------------------------------------|
A-------------------------------------5\4--|
E--0-3-0-3-0-3/5-5-5----0-3-0-3-0-3/5------|

E--------------------------------------------------|
B--------------------------------------------------|
G--------------------------------------------------|
D--------------------------------------------------|
A-------------------------------------5\4-5-7-5-4--|
E--0-3-0-3-0-3/5-5-5----0-3-0-3-0-3/5--------------|

Solo Rhythm:
E--3-2-0-----------|
B--3-3-3----2-2-2--|
G--0-2-2----2-2-2--| x3
D--0-0-0----2-2-2--|
A-----------0-0-0--|
E--3-----3---------|

E--3-2-0-----------|
B--3-3-3----2-2-2--|
G--0-2-2----2-2-2--|
D--0-0-0----2-2-2--|
A---------3p0-0-0--|
E--3---------------|
Tap to rate this tab
# A B C D E F G H I J K L M N O P Q R S T U V W X Y Z