Song name
# A B C D E F G H I J K L M N O P Q R S T U V W X Y Z

Black Crowes - My Morning Song tab

The Black Crowes
Song Title: My Morning Song
TBC Original? Yes
Written By: Chris and Rich Robinson
Recording Session: Southern Harmony And Musical Companion
Record: The Southern Harmony And Musical Companion, Live
Live Debut: 06/05/1991
Shows: 551 times played live
Notes: A fan favorite and one of the 4 key 'warhorses' played live since its debut in
- one of the two most important vehicles for improvisational playing in a live setting.
the years, live versions have featured several different 'intro jams' which occasionally 
into new songs (e.g. Pastoral). The middle bridge also sometimes had jams that were
songs (e.g. On That Hollow Day).

----------------------------
The above information was taken from www.crowesbase.com

Tuning: DGDGBD (Open G)

The entire song should be played with a slide on your little finger.

Intro:
D--------------------------------|
B--/12--12\--/10--10\------------|
G--/12--12\--/10--10\--3--5\3-0--|
D--/12--12\--/10--10\--3--5\3-0--|
G--/12--12\--/10--10\--3--5\3-0--|
D--------------------------------|

D---------------------------------------------|
B--/12--12\--/10--10\-------------------------|
G--/12--12\--/10--10\--/5----\-0-/4-/5-/7\-0--|
D--/12--12\--/10--10\--/5----\-------------0--|
G--/12--12\--/10--10\--/5----\-------------0--|
D---------------------------------------------|

Pre-Verse 1:
D-------------------------------------------------------------|
B----------0------------------------------0-------------------|
G--------0------0-/5-/5\4-0-/2-0--------0------0-/4-/5-/7\-0--|
D--0-0-3-----2--------------------0-0-3-----2--------------0--| x2
G----------------------------------------------------------0--|
D-------------------------------------------------------------|

Verse 1:
D-------------------------------------------------------------|
B----------0------------------------------0-------------------|
G--------0------0-/5-/5\4-0-/2-0--------0------0-/4-/5-/7\-0--|
D--0-0-3-----2--------------------0-0-3-----2--------------0--|
G----------------------------------------------------------0--|
D-------------------------------------------------------------|

D------------------------------------------------------------------|
B----------0------------------------------0---------------12--12\--|
G--------0------0-/5-/5\4-0-/2-0--------0------0-/4-/5-/7/12--12\--|
D--0-0-3-----2--------------------0-0-3-----2-------------12--12\--|
G---------------------------------------------------------12--12\--|
D------------------------------------------------------------------|

D-----------------------------------|
B------0-----------------------/12--|
G----0------/12\10-12\10-12\10-/12--|
D--3-----2--/12\10-12\10-12\10-/12--|
G-----------------------------------|
D-----------------------------------|

D---------------12----12----12--------------|
B------0----/12----12----12----12\11/12-----|
G----0----------------------------------12--|
D--3-----2----------------------------------|
G-------------------------------------------|
D-------------------------------------------|

D---------------------------------------------------------|
B------0--------------------------------------------------|
G----0------0-/5-/5\3-0-/3-0---/3-0---/3-0---/3-0---/3-0--|
D--3-----2-------------------0-/3-0-0-/3-0-0-/3-0-0-/3-0--|
G---------------------------------------------------------|
D---------------------------------------------------------|

Chorus 1:
D--------------------------------|
B--/12--12\--/10--10\------------|
G--/12--12\--/10--10\--3--5\3-0--|
D--/12--12\--/10--10\--3--5\3-0--| x3
G--/12--12\--/10--10\--3--5\3-0--|
D--------------------------------|

D---------------------------------------------|
B--/12--12\--/10--10\-------------------------|
G--/12--12\--/10--10\--/5----\-0-/4-/5-/7\-0--|
D--/12--12\--/10--10\--/5----\-------------0--|
G--/12--12\--/10--10\--/5----\-------------0--|
D---------------------------------------------|

Pre-Verse 2:
D-------------------------------------------------------------|
B----------0------------------------------0-------------------|
G--------0------0-/5-/5\4-0-/2-0--------0------0-/4-/5-/7\-0--|
D--0-0-3-----2--------------------0-0-3-----2--------------0--| x2
G----------------------------------------------------------0--|
D-------------------------------------------------------------|

Verse 2:
D-------------------------------------------------------------|
B----------0------------------------------0-------------------|
G--------0------0-/5-/5\4-0-/2-0--------0------0-/4-/5-/7\-0--|
D--0-0-3-----2--------------------0-0-3-----2--------------0--|
G----------------------------------------------------------0--|
D-------------------------------------------------------------|

D------------------------------------------------------------------|
B----------0------------------------------0---------------12--12\--|
G--------0------0-/5-/5\4-0-/2-0--------0------0-/4-/5-/7/12--12\--|
D--0-0-3-----2--------------------0-0-3-----2-------------12--12\--|
G---------------------------------------------------------12--12\--|
D------------------------------------------------------------------|

D-------------------------------------------------|
B------0------------------------------------------|
G----0----------12\10----12\10----12\10----10/12--|
D--3-----2--/12-------12-------12-------12--------|
G-------------------------------------------------|
D-------------------------------------------------|

D---------------12----12----12-----------------|
B------0----/12----12----12----12--------------|
G----0----------------------------12\10----12--|
D--3-----2------------------------------12-----|
G----------------------------------------------|
D----------------------------------------------|

D---------------------------------------------------------|
B------0--------------------------------------------------|
G----0------0-/5-/5\3-0-/3-0---/3-0---/3-0---/3-0---/3-0--|
D--3-----2-------------------0-/3-0-0-/3-0-0-/3-0-0-/3-0--|
G---------------------------------------------------------|
D---------------------------------------------------------|

Chorus 2:
D--------------------------------|
B--/12--12\--/10--10\------------|
G--/12--12\--/10--10\--3--5\3-0--|
D--/12--12\--/10--10\--3--5\3-0--| x3
G--/12--12\--/10--10\--3--5\3-0--|
D--------------------------------|

D--------------------------|
B--/12--12\--/10--10\------|
G--/12--12\--/10--10\--/5--|
D--/12--12\--/10--10\--/5--|
G--/12--12\--/10--10\--/5--|
D--------------------------|

Solo Rhythm:
D--------------------------|
B--7-7-------8--8--8--8-8--|
G--7-7-x-x-x-7--7--7--7-7--|
D--7-7-x-x-x-9--9--9--9-9--| x8
G--7-7-x-x-x-7--7--7--7-7--|
D--------------------------|

D-----------------------------|
B-------------1--1--1----1----|
G--0-0--x-x-x-0--0--0--0-0-0--|
D--0-0--x-x-x-2--2--2--0-2-0--| x8
G--0-0--x-x-x-0--0--0--0-0-0--|
D-----------------------------|

Interlude:
D---------3--------------3-------3-------3------------|
B-----------3---------------3-------3-------3---------|
G--4h5--------5p4----4h5------5-------5-------5--5p4--|
D-----------------------------------------------------|
G-----------------------------------------------------|
D-----------------------------------------------------|

D------3----3------3-------------|
B--------------3------3---3------|
G--4h5----5------5------5---5p4--|
D--------------------------------|
G--------------------------------|
D--------------------------------|

D------3------3------3-------------|
B---------3------3------3---3------|
G--4h5------5------5------5---5p4--|
D----------------------------------|
G----------------------------------|
D----------------------------------|

D------3---------|
B---------3------|
G--4h5------5p4--|
D----------------| x8
G----------------|
D----------------|

D------------------------------------------------------|
B--12\-------------------------------------------------|
G--12\--------4---------5---------7---------2p0---2p0--|
D--12\-------------------------------------------------|
G--12\-0--0-0----0--0-0----0--0-0----0--0-0-----0------|
D------------------------------------------------------|

D---------------------------------------------|
B---------------------------------------------|
G----4---------5---------7---------2p0---2p0--|
D---------------------------------------------| x5
G--0----0--0-0----0--0-0----0--0-0-----0------|
D---------------------------------------------|

D----------------------------------------------------------------------------------------|
B----------------------------------------------------------------------------------------|
G----4---------5----------7----------9-----------10----------12----------12----------12--|
D----------------------------------------------------------------------------------------|
G--0----0--0-0----0-0-0-0----0-0-0-0----0--0-0-0-----0-0-0-0-----0-0-0-0-----0-0-0-0-----|
D----------------------------------------------------------------------------------------|

D------|
B------|
G--12--|
D--12--|
G--12--|
D------|

I really don't have a clue what's going on right before the last chorus on the studio
because Rich's guitar is pretty much inaudible at that point.  On the Freak and Roll Into
Fog live album however, it sounds like Rich just hits a G chord at the 12th fret over 
over.

Final Two Choruses:
D--------------------------------|
B--/12--12\--/10--10\------------|
G--/12--12\--/10--10\--3--5\3-0--|
D--/12--12\--/10--10\--3--5\3-0--| x4
G--/12--12\--/10--10\--3--5\3-0--|
D--------------------------------|

D--------------------------------|
B--/12--12\--/10--10\------------|
G--/12--12\--/10--10\--3--5\3-0--|
D--/12--12\--/10--10\--3--5\3-0--| x3
G--/12--12\--/10--10\--3--5\3-0--|
D--------------------------------|

The second time through, the same chords are played three times (as shown above), but
slides up to the 12th fret and begins picking individual notes in an order that I'm not
going to attempt to figure out.  Improvise it and even throw in a few slides down to the 
fret and back up to the 12th if you want.

D--12-----------|
B-----12--------|
G--------12-----|
D-----------12--|
G---------------|
D---------------|

And then on the final "make my haze blow away", play the following to bring an end to
song:

D------12-12-12----------10-10--------------------------------------------|
B--/12-12-12-12-12\--/10-10-10-10\----------------------------------------|
G--/12-12-12-12-12\--/10-10-10-10\--/5-0--/3-0-0-/3-0-0-/3-0---3\2-3\2-0--|
D--/12----------12\--/10-------10\---------------------------0-3\2-3\2-0--|
G--/12----------12\--/10-------10\-------------------------------------0--|
D-------------------------------------------------------------------------|
Tap to rate this tab
 
# A B C D E F G H I J K L M N O P Q R S T U V W X Y Z