Guitaretab - guitar tabs
Song name
# A B C D E F G H I J K L M N O P Q R S T U V W X Y Z

Black Crowes - Waiting Guilty tab

Song Title: Waitin' Guilty
TBC Original? Yes
Written By: Chris and Rich Robinson
Recording Session: Shake Your Money Maker
Record: Other
Live Debut: 05/17/1990
Shows: 63 times played live
Notes: B-side of Shake Your Money Maker

------------------------------
The above information was taken from www.crowesbase.com

STUDIO VERSION

Rich Robinson

Tuning: DGDGBD (Open G)

Intro/Interlude:
D----------------------------------------------|
B-----3-------8--------------------------------|
G--/4------/7----7-5-x-x-3\2-x-x-----0------0--|
D----------------7-5-x-x-3\2-x-x---------------| x2
G----------------7-5-------------0h2----0h2----|
D----------------------------------------------|

Verse:
D-----5-----5\3---3-------------------|
B-------3-----------1------1-----1----|
G--/4-----4-----2---2-----------------|
D----------------------0h2---0h2---0--|
G-------------------------------------|
D-------------------------------------|

Chorus:
D-----------------|
B--5--6--6--5--5--|
G--5--5--5--5--5--|
D--5--7--7--5--5--| x2
G--5--5--5--5--5--|
D-----------------|

D---------|
B---------|
G--0---0--|
D--0-2-0--| x4
G--0------|
D---------|

Jeff Cease

Tuning: EADGBE (Standard)

Intro:
E------------------|
B------1--1p0------|
G---------------0--|
D--0h2--------0----| x2
A------------------|
E------------------|

E------------------|
B------1--1p0------|
G---------------0--|
D--0h2--------0----| x3
A------------------|
E------------------|

E---------|
B---------|
G------0--|
D--0h2----| x4
A---------|
E---------|

E------------------|
B------1--1p0------|
G---------------0--|
D--0h2--------0----| x3
A------------------|
E------------------|

E---------|
B---------|
G------0--|
D--0h2----| x4
A---------|
E---------|

Verse/Interlude:
E----3-----3-----3--|
B------3-----3------|
G-------------------|
D--5-----5-----5----|
A-------------------|
E-------------------|

Choruses (with slide):

First
E---------------------------------------------|
B--5\3/5--------------/12--12-12\10-10/12-----|
G--5\3/5--5\3---/5-/3-/12-----------------12--|
D--5\3/5------5-------/12---------------------|
A---------------------------------------------|
E---------------------------------------------|

E----------------------|
B--5\3/5--5\3/5-/5--0--|
G--5\3/5--5\3/5-/5--0--|
D--5\3/5--5\3/5-/5--0--|
A----------------------|
E----------------------|

Second
E-----------------------------------------|
B--5\3/5--5\3/5---/12--12-12\10-10/12-----|
G--5\3/5--5\3/5-/3/12-----------------12--|
D--5\3/5--5\3/5---/12---------------------|
A-----------------------------------------|
E-----------------------------------------|

E-----------------------------------------|
B--5\3/5--------------/12--/12-12-12\8-8--|
G--5\3/5--5\3---/5-/3-/12-----------------|
D--5\3/5------5-------/12-----------------|
A-----------------------------------------|
E-----------------------------------------|
[ Tab from: http://www.guitaretab.com/b/black-crowes/189394.html ]
E--------------------/15----15-----------------------------|
B--5\3/5--5\3/5----------15----15\--/15-15-15-15\12--------|
G--5\3/5--5\3/5-/3/12-------------------------------12-12--|
D--5\3/5--5\3/5--------------------------------------------|
A----------------------------------------------------------|
E----------------------------------------------------------|

E----------------------|
B--5\3/5--5\3/5-/5--0--|
G--5\3/5--5\3/5-/5--0--|
D--5\3/5--5\3/5-/5--0--|
A----------------------|
E----------------------|

Third
E---------------------------------------------|
B--5\3/5--------------/12--12-12\10-10/12-----|
G--5\3/5--5\3---/5-/3-/12-----------------12--|
D--5\3/5------5-------/12---------------------|
A---------------------------------------------|
E---------------------------------------------|

E--------------------------------------------------------|
B--5\3/5--------------/12--------------------------------|
G--5\3/5--5\3---/5-/3-/12--12\10/12--\10-10-10-10/12-12--|
D--5\3/5------5-------/12--------------------------------|
A--------------------------------------------------------|
E--------------------------------------------------------|

E--------------------/15----15-----------------------------|
B--5\3/5--5\3/5----------15----15\--/15-15-15-15\12--------|
G--5\3/5--5\3/5-/3/12-------------------------------12-12--|
D--5\3/5--5\3/5--------------------------------------------|
A----------------------------------------------------------|
E----------------------------------------------------------|

E----------------------|
B--5\3/5--5\3/5-/5--0--|
G--5\3/5--5\3/5-/5--0--|
D--5\3/5--5\3/5-/5--0--|
A----------------------|
E----------------------|

POST-HIATUS LIVE VERSION

Rich Robinson's part only!

Tuning: DGDGBD (Open G)

Intro Jam:
D--5----3----0-------|
B--3----1----1----0--|
G--4----2----0----0--|
D--5----3----2----0--|
G------------0----0--|
D--------------------|

Main Riff
D--5--3------------------|
B--3--1------------------|
G--4--2------0-----0--0--|
D--5--3--0h2---0h2----0--|
G---------------------0--|
D------------------------|

Pre-Verse:
D--5--3----------------------|
B--3--1----------------------|
G--4--2--/5--3--0--/5--3--0--|
D--5--3--/5--3--0--/5--3--0--|
G--------/5--3--0--/5--3--0--|
D----------------------------|

This is played before the first verse only.  The part before the second verse is 
different.

Verse:
D--5--3------------------|
B--3--1------------------|
G--4--2------0-----0--0--|
D--5--3--0h2---0h2----0--| x3
G---------------------0--|
D------------------------|

D--5--3------------|
B--3--1------------|
G--4--2--/5--3--0--|
D--5--3--/5--3--0--|
G--------/5--3--0--|
D------------------|

Chorus:
D-----------------|
B--5--6--6--5--5--|
G--5--5--5--5--5--|
D--5--7--7--5--5--| x2
G--5--5--5--5--5--|
D-----------------|

D-----
B-----
G--0--
D--0--
G--0--
D-----

Pre-Verse:
D--5--3------------|
B--3--1------------|
G--4--2--/5--3--0--|
D--5--3--/5--3--0--| x2
G--------/5--3--0--|
D------------------|

The interlude from the studio version is turned into a spacey jam based on the intro jam chords.
Related for Waiting Guilty tab
Advertisement will be closed in 10 seconds