Song name
# A B C D E F G H I J K L M N O P Q R S T U V W X Y Z

Black Crowes - Darling Of The Underground Press tab

The Black Crowes
Song Title: Darling Of The Underground Press
TBC Original? Yes
Written By: Chris and Rich Robinson
Recording Session: Southern Harmony And Musical Companion
Record: Other
Live Debut: 03/24/1991
Shows: 61 times played live
Notes: B-side of the Remedy single recorded during the Southern Harmony & Musical 
sessions. This was first recorded in 1991 during the same session that produced Words You 
Away, Miserable and the first version of Thorn In My Pride.

--------------------------------
The above information was taken from www.crowesbase.com

Tuning: DGDGBD (Open G) with capo at the second fret.  All notes in this tab are 
to the capo.

Intro/Main Riff:
D-----3---3---3--------------------|
B--/3---3---3---3\-----------------|
G------------------0--/3-0------0--|
D--------------------------0-/3-0--|
G--------------------------0-/3-0--|
D----------------------------------|

D-----3---3---3----------------------|
B--/3---3---3---3\-------------/12\--|
G------------------0----/3\2-0-/12\--|
D---------------------0-/3\2-0-/12\--|
G---------------------0-/3\2-0-/12\--|
D------------------------------------|

D-----3---3---3--------------------|
B--/3---3---3---3\-----------------|
G------------------0--/3-0------0--|
D--------------------------0-/3-0--|
G--------------------------0-/3-0--|
D----------------------------------|

D-----3---3---3---3---3---3---3---3---3--------------|
B--/3---3---3---3---3---3---3---3---3----------------|
G---------------------------------------3\2-0-3\2-0--|
D---------------------------------------3\2-0-3\2-0--|
G----------------------------------------------------|
D----------------------------------------------------|

Verse:
D-----------------------------------|
B--2\1-0-------------1-----0---0----|
G--3\2-0---0---0-------0---0-0-0----|
D--------2---2---0h2-----2-0-2-0-2--|
G-----------------------------------|
D-----------------------------------|

Chorus:
D------------------------------------------------|
B--7----7----7-8-7----------5--6-5--0--0-1--1-0--|
G--7----7----7-7-7-----7----5--5-5--0--0-0--0-0--|
D--7----7----7-9-7-7---7-7--5--7-5--0--0-2--2-0--| x3
G--7----7----7-7-7-7h9---7--5--5-5--0------------|
D------------------------------------------------|

D--------------------------------------|
B--7----7----7-8-7----------5--6-5--0--|
G--7----7----7-7-7-----7----5--5-5--0--|
D--7----7----7-9-7-7---7-7--5--7-5--0--|
G--7----7----7-7-7-7h9---7--5--5-5--0--|
D--------------------------------------|

Solo Rhythm:
D-------------------------------|
B-----/12-12--12\--7--5---------|
G--0--/12-12--12\--7--5--3\2-0--|
D--0--/12-12--12\--7--5--3\2-0--| x4
G--0--/12-12--12\--7--5---------|
D-------------------------------|

The above part is omitted from live performances.  The band goes straight to the next 
for the solo.

D----------------------|
B-------------------0--|
G--0-0--/7\5--0-3\2-0--|
D--0-0--/7\5--0-3\2-0--| x8
G--0-0--/7\5-----------|
D----------------------|
Tap to rate this tab
 
# A B C D E F G H I J K L M N O P Q R S T U V W X Y Z