Guitaretab - guitar tabs
Song name
# A B C D E F G H I J K L M N O P Q R S T U V W X Y Z

Black Crowes - Good Friday tab

The Black Crowes
Song Title: Good Friday
TBC Original? Yes
Written By: Chris and Rich Robinson
Recording Session: Three Snakes and One Charm
Record: Three Snakes and One Charm
Live Debut: 12/19/1995
Shows: 161 times played live
Notes: The first single from Three Snakes & One Charm

-----------------------------
The above information was taken from www.crowesbase.com

Tuning: EADGBE (Standard)

Intro/Verse:
E-----------------------------------------|
B-----5----5--5-5---7----7-x-7-x-7-7-7-7--|
G-----5----5--5-5---7----7-x-7-x-7-7-7-7--|
D-----7----7--7-7---7----7-x-7-x-7-7-7-7--|
A-----7----7--7-7---5----5-x-5-x-5-5-5-5--|
E--5--5----5--5-5-------------------------|
[ Tab from: http://www.guitaretab.com/b/black-crowes/190010.html ]
Chorus:               |1 & 2 endings
E------|-----3-----1--|--0-0-0-0-0-0-0--0--0-0--|
B------|-----3-----1--|--1-1-1-1-1-1-1--1--1-1--|
G------|-----0-----2--|--0-0-0-0-0-0-0--0--0-0--|
D------|-----0-----3--|--3-3-3-3-3-3-2--2--2-2--| x3
A------|-----2-----3--|--3-3-3-3-3-3-3--3--3-3--|
E--0-2-|--3--3--1--1--|-------------------------|

The pickups are only played once in the choruses.  On the third repeat, play the following:

E--0-0-0-0-0-0-0--     E--0--|
B--1-1-1-1-1-1-1--     B--0--|
G--0-0-0-0-0-0-0--     G--1--|
D--3-3-3-3-3-3-2-- x2  D--2--|
A--3-3-3-3-3-3-3--     A--2--|
E-----------------     E--0--|

Bridge:
E--5--|-------5-5--|
B--5--|--7-7--5-5--|
G--6--|--7-7--6-6--|
D--7--|--7-7--7-7--| x3
A--7--|--5-5--7-7--|
E--5--|-------5-5--|

E----0--0--0-------5-5---------5-5---------5-5--|
B----0--0--0--7-7--5-5----7-7--5-5----7-7--5-5--|
G----1--1--1--7-7--6-6----7-7--6-6----7-7--6-6--|
D----2--2--2--7-7--7-7----7-7--7-7----7-7--7-7--|
A----2--2--2--5-5--7-7----5-5--7-7----5-5--7-7--|
E--0-0--0--0-------5-5---------5-5---------5-5--|

Outro:
E--0-0-0-0-0-0-0--     E--0--|
B--1-1-1-1-1-1-1--     B--0--|
G--0-0-0-0-0-0-0--     G--1--|
D--3-3-3-3-3-3-2-- x3  D--2--|
A--3-3-3-3-3-3-3--     A--2--|
E-----------------     E--0--|
Related for Good Friday tab
×
Good Friday