Song name
# A B C D E F G H I J K L M N O P Q R S T U V W X Y Z

Black Crowes - Come On tab

The Black Crowes
Song Title: Come On
TBC Original? Yes
Written By: C.R & R.R.
Recording Session: Lions
Record: Lions
Live Debut: 04/01/2000
Shows: 18 times played live
Related Song: Paint An 8 Jam
Notes: The intro to this song is a ludicrously fast version of the Paint An 8 intro.

--------------------------
The above information was taken from www.crowesbase.com

Tuning: EADGBE (Standard)

Intro:
E-------------------------------|
B-------12-12---12-12----12-14--|
G-------12-12---12-12----12-14--|
D-------12-12---12-12----12-14--| x4
A-------------------------------|
E--0-0--------0-------0-0-------|

E--------------|
B--9--7--4--2--|
G--9--7--4--2--|
D--9--7--4--2--|
A--7--5--2--0--|
E--------------|

Verse:
E---------------------------------------------------------------------------|
B---------------------------------------------------------------------------|
G---------------------------------------------------------------------------|
D--7-7-7-7-7p6---6-6---x-x---7-7-7-7-7p6-------x-x---7-7-7-7-7p6---6---x-x--|
A--------------7-----7-x-x---------------7-5-7-x-x---------------7---7-x-x--|
E--------------------------0-----------------------0------------------------|

E-------------------------|
B-------------------------|
G-------------------------|
D-------------------------|
A--0h4h5p4h5p4h5p4-----7--|
E------------------7-5----|

The above is repeated three times during verse one and only twice during verse two.

E-------------------------|
B-------------------------|
G-------------------------|
D-------------------------|
A--0h4h5p4h5p4h5p4---7----|
E------------------7---0--|

Pre-Chorus:
E------------------------------|
B-------12-12---12-12---12-14--|
G-------12-12---12-12---12-14--|
D-------12-12---12-12---12-14--| x2
A------------------------------|
E--0-0--------0-------0--------|


Chorus:
E-----------------------------------------------------------------|
B--9-9-9-9-9--9-9-9\7-7-7-7-7-7-14-14-14-14-14-14-14\12-12-12-12--|
G--9-9-9-9-9--9-9-9\7-7-7-7-7-7-14-14-14-14-14-14-14\12-12-12-12--|
D--9-9-9-9-9--9-9-9\7-7-7-7-7-7-14-14-14-14-14-14-14\12-12-12-12--| x3
A-----------------------------------------------------------------|
E-----------------------------------------------------------------|

E--------------|
B--9--7--4--2--|
G--9--7--4--2--|
D--9--7--4--2--|
A--7--5--2--0--|
E--------------|

Interlude:
E----------------------------------------------|
B--------9--------9--7-9-------9-------9--7-7--|
G--------9--------9--7-9-------9-------9--7-7--|
D--------9--------9--7-9-------9-------9--7-7--| x2
A--------7--------7--5-7-------7-------7--5-5--|
E--5p0-0----5p0-0--------5p0-0---5p0-0---------|
Tap to rate this tab
# A B C D E F G H I J K L M N O P Q R S T U V W X Y Z