Song name
# A B C D E F G H I J K L M N O P Q R S T U V W X Y Z

Black Crowes - Seeing Things tab

The Black Crowes
Song Title: Seeing Things
TBC Original? Yes
Written By: Chris and Rich Robinson
Recording Session: Shake Your Money Maker
Record: Shake Your Money Maker
Live Debut: 11/24/1990
Shows: 220 times played live
Notes: "Musically, this is our Steve Cropper tribute. A soul ballad that could be on an 
Stax record. The kind

of song you don't hear much these days. a lovesick blues." (Chris)

-----------------------------
The above information was taken from www.crowesbase.com

Tuning: DGDGBD (Open G) with capo at 2nd fret.

Intro:
D---------------|
B--------0------|
G------0---0----| x4
D----0-------0--|
G--0------------|
D---------------|

D---------------|
B--------0------|
G------0---0----| x2
D----0-------0--|
G---------------|
D--2------------|

D---------------|
B--------0------|
G------0---0----| x2
D----0-------0--|
G--0------------|
D---------------|

D-----------------|
B--------0--------|
G------0---0------|
D----0-------0----|
G-----------------|
D--2-----------2--|

D---------------|
B---------------|
G------------0--|
D------0--------|
G--2/4---4\2----|
D---------------|

Verse:
D---------------|
B--------0------|
G------0---0----| x2
D----0-------0--|
G--0------------|
D---------------|

D---------------|
B--------0------|
G------0---0----| x2
D----0-------0--|
G---------------|
D--2------------|

D---------------|
B--------0------|
G------0---0----| x2
D----0-------0--|
G--0------------|
D---------------|

D---------------|
B--------0------|
G------0---0----| x2
D----0-------0--|
G---------------|
D--2------------|

D---------------|
B--------0------|
G------0---0----| x2
D----0-------0--|
G---------------|
D--3------------|

D---------------|
B--------5------|
G------5---5----| x2
D----5-------5--|
G--5------------|
D---------------|

D---------------|
B--------0------|
G------0---0----| x2
D----0-------0--|
G--0------------|
D---------------|

D-----------------|
B--------0--------|
G------0---0------|
D----0-------0----|
G--0-----------0--|
D-----------------|

D---------------|
B---------------|
G------------0--|
D------0--------|
G--2/4---4\2----|
D---------------|

Pre-Chorus:
D---------------------------------------|
B--2--2-3p2-2--2-3p2-2--2-3p2-2--2h3-2--|
G--2--2---2-2--2---2-2--2---2-2--2---2--|
D--2--2-4p2-2--2-4p2-2--2-4p2-2--2h4-2--|
G--2--2---2-2--2---2-2--2---2-2------2--|
D---------------------------------------|

D---------------------------------------|
B--7--7-8p7-7--7-8p7-7--7-8p7-7--7h8-7--|
G--7--7---7-7--7---7-7--7---7-7--7---7--|
D--7--7-9p7-7--7-9p7-7--7-9p7-7--7h9-7--|
G--7--7---7-7--7---7-7--7---7-7------7--|
D---------------------------------------|

Play the whole pre-chorus twice.

Chorus:
D-------------------------------------|
B--6--6-6--5--5-5--0--0---0-0--0---0--|
G--5--5-5--5--5-5--0--0-0-0-0--0-0-0--| x3 (x7 for outro chorus)
D--7--7-7--5--5-5--0--0-2-0-0--0-2-0--|
G--5--5-5--5--5-5--0--0-0-0-0--0-0-0--|
D-------------------------------------|

D-------------------------|
B--8----7-----------------|
G--7----7--------------0--|
D--9----7--------0--------|
G--7----7----2/4---4\2----|
D-------------------------|

The outro chorus ends on an open G chord instead of the turnaround.
Tap to rate this tab
# A B C D E F G H I J K L M N O P Q R S T U V W X Y Z