Song name
# A B C D E F G H I J K L M N O P Q R S T U V W X Y Z

Black Crowes - Sister Luck tab

The Black Crowes
Song Title: Sister Luck
TBC Original? Yes
Written By: Chris and Rich Robinson
Recording Session: Shake Your Money Maker
Record: Shake Your Money Maker
Live Debut: 03/23/1990 or before
Shows: 276 times played live
Notes: "A tired song. Weary, worn-out, down in the dumps. It's about being up for five 
and fate is calling

someone else's name." (Chris)

-----------------------------
The above information was taken from www.crowesbase.com

Tuning: DGDGBD (Open G)

Intro:
D--------------------------------|
B--5h6--6-6p5-5----5h6--6-6p5-5--|
G--5----------5----5----------5--|
D--5h7----7p5-5----5h7----7p5-5--|
G--------------------------------|
D--------------------------------|

D----------------------------------------------|
B--5h6-6-----6p5-------------------------------|
G--5-----5---------5--5-5\3--3-3--3--3-3-3--3--| x6
D--5h7-----7-----5------5\3--3-3--3--3-5-3--3--|
G-----------------------5\3--3-3--3--3-3-3--3--|
D----------------------------------------------|

Verse:
D----------------------------------------------|
B--5h6-6-----6p5-------------------------------|
G--5-----5---------5--5-5\3--3-3--3--3-3-3--3--|
D--5h7-----7-----5------5\3--3-3--3--3-5-3--3--|
G-----------------------5\3--3-3--3--3-3-3--3--|
D----------------------------------------------|

Chorus:
D---------------------------------------|
B--7--7h8--8-8-7-7-7-5--5h6--6-6-5-5-5--|
G--7--7----7-7-7-7-7-5--5----5-5-5-5-5--|
D--7--7h9--9-9-7-7-7-5--5h7--7-7-5-5-5--|
G--7--7----7-7-7-7-7-5--5----5-5-5-5-5--|
D---------------------------------------|

D--------------------------------------------------------|
B--3----------------3--3-3-----------------3-3h4-4--4-3--|
G--3----------------3--3-3-----------------3-3h3-3--3-3--|
D--3--5b6r5-3-------3--3-3-5b6r5-3---------3-3h5-5--5-3--|
G--3----------5-3------------------5-3-------------------|
D-----------------3--------------------5-3---------------|

Solo Rhythm:
D-------------------------------|
B-------------------------------|
G--3/5-6p5-6p5-x-x-x-5-6p5-6p5--| x3
D--3/5---5---5-x-x-x-5---5---5--|
G--3/5-7p5-7p5-x-x-x-5-7p5-7p5--|
D-------------------------------|

D--------------|
B--------------|
G--3--3-3------|
D--3--3-3-3-3--|
G--3--3-3-5-5--|
D---------3-3--|
Tap to rate this tab
# A B C D E F G H I J K L M N O P Q R S T U V W X Y Z