Song name
# A B C D E F G H I J K L M N O P Q R S T U V W X Y Z

Black Crowes - Black Moon Creeping tab

The Black Crowes
Song Title: Black Moon Creeping
TBC Original? Yes
Written By: C.R & R.R.
Recording Session: Southern Harmony And Musical Companion
Record: The Southern Harmony And Musical Companion, Live
Live Debut: 05/22/1991
Shows: 424 times played live
Related Song: Black Moon Jam
Notes: none at this time.

------------------------------
The above information was taken from www.crowesbase.com

Tuning: DGDGBD (Open G)

Intro:
D-------------------------------------------------------------------------|
B-------------------------------------------------------------------------|
G----------------------------------------------3--5--3--5--3--5-----------|
D--------x-x-------x-x-------x-x-------x-x-----3--5--3--5--3--5--3p0-3p0--|
G--------x-x-------x-x-3-----x-x-------x-x-----3--5--3--5--3--5--3p0-3p0--|
D--3-5-5-----3-5-5-------5-5-----3-5-5-----3-5----------------------------|

Verse:
D------------------------------------------------|
B------------------------------------------------|
G--5-5-0-0----3-3-0-0----------------------------|
D--5-5-0-0----3-3-0-0----3\2--(2)p0-2-3-5-3b5-5--|
G--5-5-0-0----3-3-0-0----------------------------|
D------------------------------------------------|

There's another rhythm guitar playing B-bender Tele licks, so this might be hard to 
but I'm almost positive there's another guitar under there playing this part.

Chorus:
D-------------------------------------------------------------|
B-------------------------------------------------------------|
G--3p0-x-x-3p0-x-0--0--0-3h5-5--3p0-x-x-3p0-x-0--0--0---------| x3
D--3p0-x-x-3p0-x-0--0--0-3h5-5--3p0-x-x-3p0-x-0--0--0--0h3p0--|
G------------------------------------------------------0h3p0--|
D-------------------------------------------------------------|

D------------------------------------------------|
B------------------------------------------------|
G--3p0-x-x-3p0-x-0--0--0-3h5-5--3p0-x-x-3p0-x-0--|
D--3p0-x-x-3p0-x-0--0--0-3h5-5--3p0-x-x-3p0-x-0--|
G------------------------------------------------|
D------------------------------------------------|

Solo Rhythm:
D--------------------------------------------------------------|
B--2----2--3-2--2-3-2--2----3p2-2-3-4-5----6p5--5h6-6-6-6p5-0--|
G--2----2--2-2--2-2-2--2----2---2-3-4-5----5-5--5---5-5-5---0--|
D--2----2--4-2--2-4-2--2----4p2-2-3-4-5----7p5--5h7-7-7-7p5-0--|
G--2----2--2-2--2-2-2--2----2---2-3-4-5----5-5--5---5-5-5---0--|
D--------------------------------------------------------------|

Rich sometimes plays a fill after hitting the open G chord.

Bridge:
D--------------------------------------------------------------------|
B--15-15-15-15--15--15--15--15-15-15-15--13-13-13-13--13--13--13--13-|
G--12-12-12-12--12--12--12--12-12-12-12--12-12-12-12--12--12--12--12-|
D--12-12-12-12--12--12--12--12-12-12-12--14-14-14-14--14--14--14--12-|
G--------------------------------------------------------------------|
D--------------------------------------------------------------------|

D-------------------------------------------------------------|
B--13-12-13-13------------------13-12-13-13-------------------|
G--------------12---------------------------12----------------|
D------------------x-x-0--x-x-0-----------------x-x-0--x-x-0--|
G------------------x-x-0--x-x-0-----------------x-x-0--x-x-0--|
D-------------------------------------------------------------|

Play the part above three times, then play the following once

D------------------------------------------------------------------------------|
B--15-15-15-15--15--15--15--15-15-15-15--13-13-13-13--13--13--13--13-13-13-13--|
G--12-12-12-12--12--12--12--12-12-12-12--12-12-12-12--12--12--12--12-12-12-12--|
D--12-12-12-12--12--12--12--12-12-12-12--14-14-14-14--14--14--14--12-14-14-14--|
G------------------------------------------------------------------------------|
D------------------------------------------------------------------------------|

D------------------------------------------------------------------------------|
B--12-12-12-12--12--12--12--12-12-12-12--12-12-12-12--12--12--12--12-12-12-12--|
G--12-12-12-12--12--12--12--12-12-12-12--12-12-12-12--12--12--12--12-12-12-12--|
D--12-12-12-12--12--12--12--12-12-12-12--12-12-12-12--12--12--12--12-12-12-12--|
G------------------------------------------------------------------------------|
D------------------------------------------------------------------------------|

Outro:
D---------------------------------------------------------|
B--12----13----12--------10-------8-------7-------5-------|
G---0-----0-----0--------------------------------------0--|
D--12----14----12----/10-------/9------/7------/5------0--|
G---0-----0-----0--------------------------------------0--|
D---------------------------------------------------------|
Tap to rate this tab
# A B C D E F G H I J K L M N O P Q R S T U V W X Y Z