Guitaretab - guitar tabs
Song name
# A B C D E F G H I J K L M N O P Q R S T U V W X Y Z

Black Crowes - What Is Home tab

The Black Crowes
Song Title: What Is Home
TBC Original? Yes
Written By: Rich Robinson
Recording Session: Cabin Fever
Record: Before The Frost...
Live Debut: 02/21/2009
Shows: 9 times played live
Notes: Recorded at Levon Helm's home studio, "The Barn" in Woodstock, NY in front of a 
audience.

Larry Campbell played banjo.

-----------------------------
The above information was taken from www.crowesbase.com

Tuning: DGDGBD (Open G)

Intro:
D----0---------------0----------------------|
B--1---1---1p0-----1---1---1-1p0------------|
G--------0-------0-------0---------0--------| x4
D--3---2---2p0-----3---2---2-2p0------------|
G--------------0-----------------0-------0--|
D------------------------------------3/5----|

Verse:
D---------------------------------------------------------|
B--0-1-3--3-1-3-/6--5--3--1--0-3--3-1-3-/6--5--3--1--0-3--|
G--0-2-3--3-2-3-/7--5--3--2--0-3--3-2-3-/7--5--3--2--0-3--|
D---------------------------------------------------------|
G---------------------------------------------------------|
D---------------------------------------------------------|

D---------------------|
B--3-1-3-/6--5--3--1--|
G--3-2-3-/7--5--3--2--|
D---------------------|
G---------------------|
D---------------------|
[ Tab from: http://www.guitaretab.com/b/black-crowes/197230.html ]
Chorus 1:
D----0---------------0----------------------|
B--1---1---1p0-----1---1---1-1p0------------|
G--------0-------0-------0---------0--------| x2
D--3---2---2p0-----3---2---2-2p0------------|
G--------------0-----------------0-------0--|
D------------------------------------3/5----|

Chorus 2, 3:
D----0---------------0----------------------|
B--1---1---1p0-----1---1---1-1p0------------|
G--------0-------0-------0---------0--------| x2
D--3---2---2p0-----3---2---2-2p0------------|
G--------------0-----------------0-------0--|
D------------------------------------3/5----|

I'm not so sure about this next part, but this is the best I could come up with...

D----5---------------5-------------------|
B--3---3---3p0-----3---3---3-3p0------0--|
G--------0-------0-------0---------0-----|
D--5---5-------5---5---5---5-----5-------|
G----------------------------------------|
D----------------------------------------|

D----0---------------0----------------------|
B--1---1---1p0-----1---1---1-1p0------------|
G--------0-------0-------0---------0--------|
D--3---2---2p0-----3---2---2-2p0------------|
G--------------0-----------------0-------0--|
D------------------------------------3/5----|

Bridge/Solo Rhythm:
D--------------------------|
B--7--7--5-7--3--5--1-0-0--|
G--7--7--5-7--4--5--2-0-0--|
D--x--x--x-x--x--x--x-0-0--|
G--7--7--5-7--4--5--2-0-0--|
D--------------------------|
Related for What Is Home tab
What Is Home chords by Black Crowes