Song name
# A B C D E F G H I J K L M N O P Q R S T U V W X Y Z

Black Crowes - Good Morning Captain tab

The Black Crowes
Song Title: Good Morning Captain
TBC Original? Yes
Written By: Chris and Rich Robinson
Recording Session: Cabin Fever
Record: Before The Frost...
Live Debut: 02/28/2009
Shows: 14 times played live
Notes: Recorded at Levon Helm's home studio, "The Barn" in Woodstock, NY in front of a 
audience. It was recorded at each of the last three sessions.

Larry Campbell played banjo.

-------------------------------
The above information was taken from www.crowesbase.com

Tuning: DGDGBD (Open G)

Intro:
D------------------------------|
B--/3-3-3----------------------|
G--/4-4-4\2p0---------------0--|
D-------------0h2-0------------|
G-------------------2/4\2p0----|
D------------------------------|

Verse:
D-----------------------------------------------|
B----------12----------10------------5----------|
G-------0---0-------0---0-----7---7--5-0-3b4-0--|
D----------12----------10-------7-7--5-0--------|
G--0h12-----0--0h10-----0--/7---7-7--5-0--------|
D-----------------------------------------------|

Pre-Chorus/Solo Rhythm:
D-----5-7p5---5-----3-5--5----|
B--/6-------5----/4--------3--|
G-----------------------------|
D-----------------------------|
G-----------------------------|
D-----------------------------|

Chorus:
D--0---0-----|
B--1p0-1--0--|
G--0---0--0--| x3
D--2p0-2--0--|
G--0---0--0--|
D------------|

D---------------|
B---------------|
G------0-----0--|
D--0h2---2p0-0--|
G------------0--|
D---------------|

The entire chorus section is repeated twice.  After each of the first two choruses, play 
intro riff to bridge the chorus with the next verse.  After Luther's guitar solo, there 
two more choruses back to back, which lead directly to the ending riff tabbed out below.

Interlude:
D-----------------------------|
B------------3----------------|
G------0-2/4---4\2--0---------| x2
D--0h2-----------------0h2-0--|
G-----------------------------|
D-----------------------------|

D--------------------------------|
B------------3-------------------|
G------0-2/4---4\2-0-------------|
D--0h2---------------0h2--0------|
G----------------------------0---|
D--------------------------------|

D------------------------------|
B------------3-----------------|
G------0-2/4---4\2--0-0--------|
D--0h2------------------0h2-0--|
G------------------------------|
D------------------------------|

Ending:
D--0---0-----|
B--1p0-1--0--|
G--0---0--0--| x2
D--2p0-2--0--|
G--0---0--0--|
D------------|

D------------------------------|
B--/3-3-3----------------------|
G--/4-4-4\2p0---------------0--|
D-------------0h2-0------------|
G-------------------2/4\2p0----|
D------------------------------|
Tap to rate this tab
# A B C D E F G H I J K L M N O P Q R S T U V W X Y Z