Song name
# A B C D E F G H I J K L M N O P Q R S T U V W X Y Z

Black Crowes - Thick N Thin tab

The Black Crowes
Song Title: Thick N' Thin
TBC Original? Yes
Written By: Chris and Rich Robinson
Recording Session: Shake Your Money Maker
Record: Shake Your Money Maker, Live
Live Debut: 03/23/1990 or before
Shows: 350 times played live
Notes: "A nasty little song that Mom wouldn't like if she knew what I was talking 
(Chris)

--------------------------
The above information was taken from www.crowesbase.com

Tuning: DGDGBD (Open G)

Intro/Verse:
D-----------------------------------|
B--5--5-6-5-6-5-5-5-5-6-5-6-5--5-5--|
G--5--5-5-5-5-5-5-5-5-5-5-5-5--5-5--|
D--5--5-7-5-7-5-5-5-5-7-5-7-5--5-5--|
G--5--5-5-5-5-5-5-5-5-5-5-5-5--5-5--|
D-----------------------------------|

First Chorus:
D-------------------------|
B------------5--5--5---5--|
G--10-10-9-7-5--5--5-5-5--| x3
D--10-10-9-7-5--5--5-7-5--|
G--10-10-9-7-5--5--5-5-5--|
D-------------------------|

D------------------|
B--3----3----------|
G--3----3----------|
D--3----3-3-3-3-3--|
G--3----3-5-5-5-5--|
D---------3-3-3-3--|

D---------------------------------|
B---------------------------------|
G--5-5-5-5-5-5-5-5-5-5-5-5-5-5-5--|
D--5-5-7-5-5-5-7-5-5-5-7-5-5-5-7--|
G--5-5-5-5-5-5-5-5-5-5-5-5-5-5-5--|
D---------------------------------|

D------------------|
B--3----3----------|
G--3----3----------|
D--3----3-3-3-3-3--|
G--3----3-5-5-5-5--|
D---------3-3-3-3--|

Second Chorus:
D-------------------------|
B------------5--5--5---5--|
G--10-10-9-7-5--5--5-5-5--| x3
D--10-10-9-7-5--5--5-7-5--|
G--10-10-9-7-5--5--5-5-5--|
D-------------------------|

D------------------|
B--3----3----------|
G--3----3----------|
D--3----3-3-3-3-3--|
G--3----3-5-5-5-5--|
D---------3-3-3-3--|

D---------------------------------|
B---------------------------------|
G--5-5-5-5-5-5-5-5-5-5-5-5-5-5-5--|
D--5-5-7-5-5-5-7-5-5-5-7-5-5-5-7--|
G--5-5-5-5-5-5-5-5-5-5-5-5-5-5-5--|
D---------------------------------|

D------------------|
B--3----3----------|
G--3----3----------|
D--3----3-3-3-3-3--|
G--3----3-5-5-5-5--|
D---------3-3-3-3--|

D---------------------------------|
B---------------------------------|
G--5-5-5-5-5-5-5-5-5-5-5-5-5-5-5--|
D--5-5-7-5-5-5-7-5-5-5-7-5-5-5-7--|
G--5-5-5-5-5-5-5-5-5-5-5-5-5-5-5--|
D---------------------------------|

D------------------|
B--3----3----------|
G--3----3----------|
D--3----3-3-3-3-3--|
G--3----3-5-5-5-5--|
D---------3-3-3-3--|

D---------------------------------|
B---------------------------------|
G--5-5-5-5-5-5-5-5-5-5-5-5-5-5-5--|
D--5-5-7-5-5-5-7-5-5-5-7-5-5-5-7--|
G--5-5-5-5-5-5-5-5-5-5-5-5-5-5-5--|
D---------------------------------|

D------------------|
B--3----3----------|
G--3----3----------|
D--3----3-3-3-3-3--|
G--3----3-5-5-5-5--|
D---------3-3-3-3--|

Interlude:
D--------------------------------------------------------|
B--5---------------------------------------5----6-6-6-6--|
G--5----5--5--5--5-5-5--5--5--5-----5--5-5-5----5-5-5-5--|
D--5----5--5--5--5-5-5--7--5--7-5---5--5-7-5----7-7-7-7--|
G--5------------------------------7--------5----5-5-5-5--|
D--------------------------------------------------------|

D-------------------------|
B------------5--5--5---5--|
G--10-10-9-7-5--5--5-5-5--| x2
D--10-10-9-7-5--5--5-7-5--|
G--10-10-9-7-5--5--5-5-5--|
D-------------------------|

D------------------------------------------------|
B--5------------------------------------------5--|
G--5----5--5--5--5-5-5--5--5--7b9r7p5---5-5---5--|
D--5----5--5--5--5-5-5--7--5----------7-----7-5--|
G--5------------------------------------------5--|
D------------------------------------------------|
Tap to rate this tab
 
# A B C D E F G H I J K L M N O P Q R S T U V W X Y Z