Song name
# A B C D E F G H I J K L M N O P Q R S T U V W X Y Z

Black Crowes - Been A Long Time Waiting On Love tab

The Black Crowes
Song Title: Been A Long Time (Waiting On Love)
TBC Original? Yes
Written By: Chris and Rich Robinson
Recording Session: Cabin Fever
Record: Before The Frost...
Live Debut: 02/28/2009
Shows: 21 times played live
Notes: Recorded at Levon Helm's home studio, "The Barn" in Woodstock, NY in front of a 
audience. It was recorded at each of the last three sessions.

Joe Magistro played percussion.

--------------------------------
The above information was taken from www.crowesbase.com

Tuning: CGCGCE (Open C)

Intro/Chorus:
E--------------------------------------|
C-----------------------------------0--|
G-----------------------------------0--|
C--------------------------------------|
G--------3-5--------3-5--x-x-----------|
C--3-4-5------3-4-5----------0--3p0----|

E--------------------------------------|
C--------------------------------------|
G--------------------------------------|
C--------------------------------------|
G--------3-5--------3-5--x-x-----------|
C--3-4-5------3-4-5----------0--3-2-0--|

E--------------------------------------|
C-----------------------------------0--|
G-----------------------------------0--|
C--------------------------------------|
G--------3-5--------3-5--x-x-----------|
C--3-4-5------3-4-5----------0--3p0----|

E------------------------|
C---------------------0--|
G---------------------3--|
C---------------------4--|
G--------3-5--------3-5--|
C--3-4-5------3-4-5------|

Pre-Verse:
E--------------------------------|
C--0-0---0--0---0--0---0--0------|
G--3-3-x-3--3-x-3--3-x-3--3-x-x--| x2
C--4-4-x-4--4-x-4--4-x-4--4-x-x--|
G--5-5-x-5--5-x-5--5-x-5--5-x-x--|
C--------------------------------|

E---------------------------|
C----3-2-0-----0-----0------|
G------------0-----0---0----| x4
C----------5-----4-------4--|
G---------------------------|
C--0------------------------|

Verse:
E---------------------------|
C----3-2-0-----0-----0------|
G------------0-----0---0----| x8
C----------5-----4-------4--|
G---------------------------|
C--0------------------------|

Pre-Chorus:
E-----------------------------------------------------|
C--5--5--5-5--3--3--3-3-3-3--0--0--0-0--0--0--0-0--0--|
G--5--5--5-5--3--3--3-3-3-3--3--3--3-3--3--3--3-3--3--| X2
C--5--5--5-5--3--3--3-3-3-3--4--4--4-4--4--4--4-4--4--|
G----------------------------5--5--5-5--5--5--5-5--5--|
C-----------------------------------------------------|

Solo Rhythm:
E--------------------------|
C--------------------------|
G-----0--3--0-----0-----0--| x6
C---------------0-----0----|
G--------------------------|
C--0----------3-----5------|

Outro Jam:
E--------------------------------------------------------|
C--------------------------------------------------------|
G--------------------------------------------------------|
C--0-0-x-x-x-x-x-x-x-x-0-0-x-x-x-x-x-x-x-x-x-x-3--x-x-5--|
G--0-0-x-x-x-x-x-x-x-x-0-0-x-x-x-x-x-x-x-x-x-x-3--x-x-5--|
C--0-0-x-x-x-x-x-x-x-x-0-0-x-x-x-x-x-x-x-x-x-x-3--x-x-5--|

Luther plays the main riff twice, and then Rich comes in with this part, which is played 
a full two and a half minutes and concluded with..

E------------------------------|
C------------------------------|
G------------------------------|
C--------------------------0---|
G--------3-5--------3-5----5\--|
C--3-4-5------3-4-5--------0---|
Tap to rate this tab
# A B C D E F G H I J K L M N O P Q R S T U V W X Y Z