Song name
# A B C D E F G H I J K L M N O P Q R S T U V W X Y Z

Black Crowes - Walk Believer Walk tab

The Black Crowes
Song Title: Walk Believer Walk
TBC Original? Yes
Written By: Chris and Rich Robinson
Recording Session: Warpaint
Record: Warpaint
Live Debut: 03/02/2008
Shows: 26 times played live
Notes: This song was recorded in July, 2007 at Allaire Studios, Shokan, NY. It was 
produced by Paul Stacey and The Black Crowes.

“The other thing was to be in a real roots-oriented place. That's one of the 
themes of this record. The blues have always been such a main wellspring of 
inspiration, and this is a ferocious kind of blue songs. That lexicon is being 
lost. There's still so much life in the blues for us. ‘Walk Believer Walk’ is a 
song with a lot of venom in it for the non-believers.” - Chris Robinson

--------------------------
The above information was taken from www.crowesbase.com

TUNING: CGCGCE (Open C)

Intro/Solo Rhythm:
E----0-0-0--0--0-------------0--0-0-0--0--0--0--0-0-0--0--0-------------0--0--0--0--0--0--|
C--------------------------0-0---------------0------------------------0-0--0--2--4--3--0--|
G----0-2-3--2--2h3p2p0-------0--0-2-3--2--0--0--0-2-3--2--2h3p2p0-------0--0--0--0--0--0--| x2
C----------------------3h4---0---------------0--------------------3h4---0--0--2--4--4--0--|
G----------------------------0---------------0--------------------------0--------------0--|
C----------------------------0---------------0--------------------------0--------------0--|

Verse:
E-------------------------------------------|
C----5-3--5-3--5-3-----0--5-3--5-3--5----0--|
G----5-3--5-3--5-3-----0--5-3--5-3--5----0--| x4
C----5-3--5-3--5-3--0--0--5-3--5-3--5-0--0--|
G-------------------0-----------------0-----|
C-------------------0-----------------0-----|

Chorus:
E--------------------------------------------------------------|
C--------------------------------0-----------------------------|
G--------------------------------0-----------------------------| x2
C--------------------------------0-----------------------------|
G--------------------------------------------------------------|
C----0-3-5-3-5-3-5-3-5-3-5-0-3-0----0-3-5-3-5-3-5-3-5-3-0-3-0--|
Tap to rate this tab
# A B C D E F G H I J K L M N O P Q R S T U V W X Y Z