Song name
# A B C D E F G H I J K L M N O P Q R S T U V W X Y Z

Black Crowes - The Last Place That Love Lives tab

The Black Crowes
Song Title: Last Place That Love Lives
TBC Original? Yes
Written By: Chris Robinson
Recording Session: Cabin Fever
Record: Before The Frost...
Live Debut: 02/28/2009
Shows: 4 times played live
Notes: Recorded at Levon Helm's home studio, "The Barn" in Woodstock, NY in front of a 
audience.

--------------------------------
The above information was taken from www.crowesbase.com

Tuning: EADGBE (Standard)

This song is pretty straightforward, Chris picks the part I've tabbed out before the 
and during the instrumental part, but strums the verses and choruses.

NOTE: Every F# notated here is not a full F# chord, but rather only the F# note on the 
E string.

E--------------------------3--3--3-3-3--|
B-------------------1--1-1-3--3--3-1-3--|
G----------0------0-0--0-0-0--0--0-0-0--|
D----------0------0-2--2-2-0--0--0-2-0--|
A------0h2----0h2---3--3-3-2-------3-2--|
E--3-3---------------------3---------3--|

E-----------------------------3--3--3-3-3--|
B-----------------------------3--3--3-1-3--|
G-----------------------0---0-0--0--0-0-0--|
D------0---0--0---0---2-------0--0--0-2-0--|
A------0h2----0h2-----2-------2-------3-2--|
E--3-3--------------0-----2---3---------3--|

             C    G   C G
Up high in a mansion
                 Em  F# G     C G
On a mountain of jagged rock
           C    G      C G
Behind two iron doors
              Em   F# G       C G
So heavy they need no lock

       G    F#         Em
Is the last place that love lives
                F#  G      C G
Where the sad woman cries
            F#         Em          D
Is the last place that love lives
            G     C G
Behind your eyes

(chords remain the same throughout)

E--------------------------------3--3--3-3-3--|
B-------------------1------------3--3--3-1-3--|
G----------0------0-0----------0-0--0--0-0-0--|
D----------0------0-2--2-0h2p0---0--0--0-2-0--|
A------0h2----0h2---3------------2-------3-2--|
E--3-3---------------------------3---------3--|

You hold up your finger
And you place it to my lips
And you tell me that anger
Can never get rid of this

Is the last place that love lives
Where the sad woman cries
Is the last place that love lives
Behind your eyes

Interlude:
E--------------------------3--3--3-3-3--|
B-------------------1--1-1-3--3--3-1-3--|
G----------0------0-0--0-0-0--0--0-0-0--|
D----------0------0-2--2-2-0--0--0-2-0--|
A------0h2----0h2---3--3-3-2-------3-2--|
E--3-3---------------------3---------3--|

E-----------------------------3--3--3-3-3--|
B-----------------------------3--3--3-1-3--|
G-----------------------0---0-0--0--0-0-0--|
D------0---0--0---0---2-------0--0--0-2-0--|
A------0h2----0h2-----2-------2-------3-2--|
E--3-3--------------0-----2---3---------3--|

E--------------------------3--3--3-3-3--|
B-------------------1--1-1-3--3--3-1-3--|
G----------0------0-0--0-0-0--0--0-0-0--|
D----------0------0-2--2-2-0--0--0-2-0--|
A------0h2----0h2---3--3-3-2-------3-2--|
E--3-3---------------------3---------3--|

E-----------------------------3--3--3-3-3--|
B-----------------------------3--3--3-1-3--|
G-----------------------0---0-0--0--0-0-0--|
D------0---0--0---0---2-------0--0--0-2-0--|
A------0h2----0h2-----2-------2-------3-2--|
E--3-3--------------0-----2---3---------3--|

E----------------------0--0----0-0---------------3-----3-3-3--|
B----------------------0--0----0-0---------------3-----3-1-3--|
G----------------------0--0----0-0---------------0-----0-0-0--|
D------0---0--0---0-2--2----2------0---0------0--0--0--0-2-0--|
A------0h2----0h2---2--2----2------0h2----0h2----2--2----3-2--|
E--3-3--------------0--0----0--------------------3--3------3--|

E----------------------2--2-2--2-2-3--3--3-3-3--|
B----------------------3--3-3--3-3-3--3--3-1-3--|
G----------------------2--2-2--2-2-0--0--0-0-0--|
D------0---0-----2--2--0--0-0--0-0-0--0--0-2-0--|
A------0h2-0-----2--2--------------2--2----3-2--|
E--3-3--------3--0--0--------------3--3------3--|

Never blind to misfortune
Never deaf to the sorrowful moan
Set adrift on an ocean
Until I find that peaceful shore

Is the last place that love lives
Where the sad woman cries
Is the last place that love lives
Behind your eyes
Tap to rate this tab
# A B C D E F G H I J K L M N O P Q R S T U V W X Y Z