Song name
# A B C D E F G H I J K L M N O P Q R S T U V W X Y Z

Black Crowes - Better When Youre Not Alone tab

The Black Crowes
Song Title: Better When You're Not Alone
TBC Original? Yes
Written By: C.R & R.R.
Recording Session: Three Snakes and One Charm
Record: Three Snakes and One Charm
Live Debut: 09/21/1996
Shows: 40 times played live
Notes: Also released as a single, with Pimper's Paradise as the b-side

-------------------------------
The above information was taken from www.crowesbase.com

Tuning: EADGBE (Standard)

I'd like to thank Amorica2 user CitizenDick, who provided the basis for this tab.

Verse:
E-------------------------------|
B-----2-2-0--0--2---------------|
G-----2-2-2--2--2----2---2---2--|x4
D-----2-2-2--2--2--2---0--------|
A--0--0-0-0--0--0----------2----|
E-------------------------------|

E-------------------------------|
B-------------------------------|
G-------------------------------| x2
D--2--0h2--0--------------------|
A--2---------0h2-0-----------0--|
E--0---------------2b3r2-0-2----|

E-------------------------------|
B-----2-2-0--0--2---------------|
G-----2-2-2--2--2----2---2---2--|
D-----2-2-2--2--2--2---0--------|
A--0--0-0-0--0--0----------2----|
E-------------------------------|

E----------------------------|
B-----2-2-0--0--2-2-2-2-2-2--|
G-----2-2-2--2--2-2-2-2-2-2--|
D-----2-2-2--2--2-2-2-2-2-2--|
A--0--0-0-0--0--0-0-0-0-0-0--|
E----------------------------|

Chorus:
E--0--0-----0----0--0-----0-----|
B--3----3-----3--2----2-----2---|
G--2------2------2------2-----2-|
D--0-------------0--------------|
A-------------------------------|
E-------------------------------|

E--0--0--0-0-0--0--0--0-0-0-0--|
B--3--3--3-3-3--0--0--0-0-2-0--|
G--2--2--2-2-2--2--2--2-2-2-2--|
D--0--0--0-0-0--2--2--2-2-2-2--|
A---------------0--0--0-0-0-0--|
E------------------------------|

E--0--0-----0----0--0-----0-----|
B--3----3-----3--2----2-----2---|
G--2------2------2------2-----2-|
D--0-------------0--------------|
A-------------------------------|
E-------------------------------|

E--0--0-----0--0--0-0-0--|
B--3----3---3--2--2-2-0--|
G--2------2-2--2--2-2-2--|
D--0--------0--2--2-2-2--|
A--------------0--0-0-0--|
E------------------------|

1st Chorus Ending:
E-----------------------------|
B-----------------------------|
G-----------------------------|
D-----0h2--0---------0--------|
A-------------2--2/4---4\2-0--|
E--0--------------------------|

2nd Chorus Ending:
E--------------------------------------------|
B--------------------------------------------|
G--------------------------------------------|
D-----0h2--0---------0--------------0--------|
A-------------2--2/4---4\2-0-2--2/4---4\2-0--|
E--0-----------------------------------------|

Interlude:
E---------------------------------------------------------|
B---------------------------------------------------------|
G--------------------------0--0-0--0-0--0--0-0-0-0-0-0-0--| x3
D--9-----9--9--9-9-9-9-9-9-5--5-5--5-5--5--5-5-5-5-5-5-5--|
A--7-----7--5--5-5-5-5-5-5-4--4-4--4-4--5--5-5-5-5-5-5-5--|
E--0--0--0--0--0-0-0-0-0-0-5--5-5--5-5--------------------|

E--------------------------------------------------------|
B--------------------------------------------------------|
G--------------------------0--0-0--0-0--0-0-0-0-0-0-0-0--|
D--9-----9--9--9-9-9-9-9-9-5--5-5--5-5--5-5-5-5-5-5-5-5--|
A--7-----7--5--5-5-5-5-5-5-4--4-4--4-4--4-4-4-4-4-4-4-4--|
E--0--0--0--0--0-0-0-0-0-0-5--5-5--5-5--5-5-5-5-5-5-5-5--|

Outro:
E------------------------------------------|
B----------------------2-2-2-3p2-3/5-5--5--|
G--7---------------------------------------|
D--6---------------------------------------|
A--7----5----------------------------------|
E--0---------7----5------------------------|

E-------------------------------------------------|
B-------------------------------------------------|
G--7----------------------------------------------|
D--x-------------------------5-7-7b8r7-5----------|
A--7----7--5-------------5-7-------------7-5-7----|
E--0----------7-6-5----7-----------------------0--|

E---------------------------------------|
B------------------------2/3--3/5-5--5--|
G--7------------------------------------|
D--x----------------0-------------------|
A--7----7--5----------------------------|
E--0----------7-6-5---------------------|

E---------------------------------------------|
B---------------------------------------------|
G--7----7--7--------6-------------------------|
D--6----6--6--------x-------------------------|
A--7----7--7--------4------------------5-7----|
E--0----0--0--7-6-5-5--5--5--5--5--5-7-0---0--|

E---------------------------------------------------|
B---------------------------------------------------|
G--------------------6----6h7p6---6--6-6---6---6----|
D-------------------------------7--------0---0------|
A--------7--5---------------------------------------|
E--0-0-0-0--0--7-6-5-----------------------------0--|

FADE OUT

E-------------------------------------------------|
B---------------------0---------------------------|
G--7----7---------7---6---------------------------|
D--6----6-----------------------------------------|
A--7----7--5---------------------------------5-6--|
E-------------7-6---5----5-5-5-5--5-5--5-5h7------|

E-----------------|
B--7--------------|
G--0--------------|
D--x--------------|
A--7----5---------|
E----------7-6-5--|
Tap to rate this tab
# A B C D E F G H I J K L M N O P Q R S T U V W X Y Z