Song name
# A B C D E F G H I J K L M N O P Q R S T U V W X Y Z

Black Crowes - Wyoming And Me tab

The Black Crowes
Song Title: Wyoming And Me
TBC Original? Yes
Written By: Chris and Rich Robinson
Recording Session: Band
Record: Band (released as "Lost Crowes")
Live Debut: 08/10/2005
Shows: 14 times played live
Related Song: Welcome To The Goodtimes
Notes: Recorded in May, 1997 for "The Band". The main progression of this song
evolved into "Welcome To The Good Times" on the By Your Side album.

-------------------------------
The above information was taken from www.crowesbase.com

Tuning: EADGBE (Standard)

Intro:
E----------------------------------|
B-----3-3-3--3--3-3-0--0h2-------2-|
G-----2-2-2--2--2-2-2------0-------| x4
D-----2-2-2--2--2-2-2--------2-----|
A--0---------------------------0---|
E----------------------------------|

Verse:
E----3---3---3---3----2-----3-----3-----3----|
B----3---3---3---3------3-----3-----3-----3--|
G----0---0---0---0---------------------------| x3
D-------------------0------------------------|
A-------------------------3-----2-----1------|
E--3---2---1---0-----------------------------|

E----3---3---3---3----2-----0-----0-----0----|
B----3---3---3---3------3-----3-----3-----3--|
G----0---0---0---0---------------------------|
D-------------------0------------------------|
A-------------------------3-----2-----1------|
E--3---2---1---0-----------------------------|

E---------------|
B----1---1---1--|
G----0---0---0--|
D---------------|
A--3---2---1----|
E---------------|

E----------------------------------|
B-----3-3-3--3--3-3-0--0h2-------2-|
G-----2-2-2--2--2-2-2------0-------|
D-----2-2-2--2--2-2-2--------2-----|
A--0---------------------------0---|
E----------------------------------|

Chorus:
G		 D	    C
You're beautiful but you're flawed
G		 D	    C
You're desperate but you're strong
G	      	  D	 C
You're lonely but never alone
       G	   D   C
You're empty, like Wyoming

and me
E----------------------------------|
B-----3-3-3--3--3-3-0--0h2-------2-|
G-----2-2-2--2--2-2-2------0-------|
D-----2-2-2--2--2-2-2--------2-----|
A--0---------------------------0---|
E----------------------------------|

Solo Rhythm:
E  D
E  D
E  D
E  D

A Asus4 Asus2 A
A Asus4 Asus2 A

C  C/B  Am
C  C/B  Am
C  C/B
E----------------------------------|
B-----3-3-3--3--3-3-0--0h2-------2-|
G-----2-2-2--2--2-2-2------0-------|
D-----2-2-2--2--2-2-2--------2-----|
A--0---------------------------0---|
E----------------------------------|
Tap to rate this tab
# A B C D E F G H I J K L M N O P Q R S T U V W X Y Z