Song name
# A B C D E F G H I J K L M N O P Q R S T U V W X Y Z

Black Crowes - Grinnin tab

The Black Crowes
Song Title: Grinnin'
TBC Original? Yes
Written By: Chris and Rich Robinson
Recording Session: Tall, Band
Record: Band (released as "Lost Crowes")
Live Debut: 01/25/1995
Shows: 3 times played live
Related Song: Okay By Me
Notes: For extensive notes on Grinnin' please visit www.crowesbase.com

--------------------------------
The above information was taken from www.crowesbase.com

Tuning: EADGBE (Standard)

THIS TAB IS NOT FOR THE VERSION RELEASED ON LOST CROWES.  This is a tab of the live
recorded on 1995-03-12 at the Stranahan Theater, in Toledo, OH, which is the original
of the song before it became Okay By Me in 1997.  Okay By Me was later retitled to 
in 2006 on Lost Crowes, but the Grinnin' of 1995 does in fact differ from the Grinnin' of 2006.

E-------------------------------------2--2-2-2--|
B----1--1-1-1---1--1-1-1---1--1-1-1---3--3-3-3--|
G----0--0-0-0---0--0-0-0---2--2-2-2---2--2-2-2--|
D----2--2-2-2---0--0-0-0---2--2-2-2-0-----------|
A--3----------2----------0----------------------|
E-----------------------------------------------|

Pre-Chorus/Solo Rhythm:
E--------------------------|
B--------------------------|
G--------0--0--0-----------| x3
D--0-2-3---------3-2-0--0--|
A--------------------------|
E--------------------------|

E---------------------|
B---------------------|
G--------0--0--0------|
D--0-2-3---------3-2--|
A---------------------|
E---------------------|

Chorus:
E--------------------------------------|
B--------------------------------------|
G-----0--------0--------0-------0------|
D-------3-2------3-2------3-2-----3-2--|
A--3--------2--------0-----------------|
E-----------------------------3--------|

E---------------------------------|
B---------------------------------|
G---------------------------------|
D--3-3-3-3-3-3-3-3-5-5-5-5-5-5-5--|
A--3-3-3-3-3-3-3-3-5-5-5-5-5-5-5--|
E--1-1-1-1-1-1-1-1-3-3-3-3-3-3-3--|

Bridge:
E----------------------------------|
B----------------------------------|
G----------------------------------| x2
D--6-6-6-6-6-8-6-5--5-5-5-5--------|
A--6-6-6-6-6-8-6-5--5-5-5-5--------|
E--4-4-4-4-4-6-4-3--3-3-3-3-0-1-2--|

E----------------------------------------------------------------------------|
B----------------------------------------------------------------------------|
G----------------------------------------------------------------------------|
D--6-6-6-6-6-8-6-8--8-8-8-9-9-9-9-10-10-10-10-10-10-10-10-10-10-10-10-10-10--|
A--6-6-6-6-6-8-6-8--8-8-8-9-9-9-9-10-10-10-10-10-10-10-10-10-10-10-10-10-10--|
E--4-4-4-4-4-6-4-6--6-6-6-7-7-7-7--8--8--8--8--8--8--8--8--8--8--8--8--8--8--|

Interlude:
E-----------------------------------------------|
B----1----------1----------1----------1---------|
G----0--0-------0--0-------0--0-------0--0------|
D---------3-2--------3-2--------3-2--------3-2--|
A--3----------2----------0----------2-----------|
E-----------------------------------------------|

E-----------------------------------------------|
B----1----------1----------1----------1---------|
G----0--0-------0--0-------0--0-------0--0------|
D---------3-2--------3-2--------3-2--------3-2--|
A--3----------2----------0----------------------|
E-----------------------------------3-----------|

E---------------------------------|
B---------------------------------|
G---------------------------------|
D--3-3-3-3-3-3-3-3-5-5-5-5-5-5-5--|
A--3-3-3-3-3-3-3-3-5-5-5-5-5-5-5--|
E--1-1-1-1-1-1-1-1-3-3-3-3-3-3-3--|

This leads directly into the outro jam, which is in Em.  It's impossible to tell what
is playing here because the only version of this song that I have is an audience
so just hit some open Em chords and take it from there.
Tap to rate this tab
# A B C D E F G H I J K L M N O P Q R S T U V W X Y Z