Song name
# A B C D E F G H I J K L M N O P Q R S T U V W X Y Z

Black Crowes - Bad Luck Blue Eyes Goodbye tab

The Black Crowes
Song Title: Bad Luck Blue Eyes Goodbye
TBC Original? Yes
Written By: C.R & R.R.
Recording Session: Southern Harmony And Musical Companion
Record: The Southern Harmony And Musical Companion
Live Debut: 10/12/1991
Shows: 121 times played live
Notes: none at this time.

-------------------------------
The above information is taken from www.crowesbase.com

Tuning: EADGBE (Standard)

Intro:
E-------------------------------------------------|
B--10--10--x-10----10--10--x-10----10-10----------|
G---9---9--x--9-----9---9--x--9-----9--9-9-9\--2--| x2
D--11--11--x-11----11--11--x-11----11-11-9-9\--2--|
A---9---9--x--9-----9---9--x--9-----9--9-9-9\--0--|
E-------------------------------------------------|

First Verse:
E-------------------------------------------------|
B--10--10--x-10----10--10--x-10----10-10----------|
G---9---9--x--9-----9---9--x--9-----9--9-9-9\--2--| x2
D--11--11--x-11----11--11--x-11----11-11-9-9\--2--|
A---9---9--x--9-----9---9--x--9-----9--9-9-9\--0--|
E-------------------------------------------------|

E-----------------------------------------------------------|
B--------------------8--8p7---------------------------------|
G--9--9--9-9--9-x-7------------7/9--9--9-9--9--9---------2--|
D--9--9--9-9--9-x-7---------7--7/9--9--9-9--9--9-9----9\-2--|
A--7--7--7-7--7-x-5-----------------7--7-7--7--7-9----9\-0--|
E------------------------------------------------7----7\----|

Remaining Verses:
E-------------------------------------------------|
B--10--10--x-10----10--10--x-10----10-10----------|
G---9---9--x--9-----9---9--x--9-----9--9-9-9\--2--| x2
D--11--11--x-11----11--11--x-11----11-11-9-9\--2--|
A---9---9--x--9-----9---9--x--9-----9--9-9-9\--0--|
E-------------------------------------------------|

E-------------------------------------|
B-------------------------------------|
G--9--9--9-9--9-x-7--7--7-7--7--7-7-7-|
D--9--9--9-9--9-x-7--7--7-7--7--7-7-7-|
A--7--7--7-7--7-x-5--5--5-5--5--5-5-5-|
E-------------------------------------|

E-------------------------------------------------------|
B----------------------------------------8-8-8-8p7------|
G--9--9--9-9--9--9--------------------7--------------6--|
D--9--9--9-9--9--9--9--9--9-9--9-9-11-7------------7-7--|
A--7--7--7-7--7--7--9--9--9-9--9-9-11-5--------------7--|
E-------------------7--7--7-7--7-7-------------------5--|

E--3--3--3--3-3-3--|
B--2--2--2--2-2-2--|
G--2--2--2--2-2-2--|
D--2--2--2--2-2-2--|
A--0--0--0--0-0-0--|
E------------------|

Chorus/Outro:
E--2--2----------3-3-3-------|
B--3--3----------2-2-2-------|
G--2--2----------2-2-2-------| x3
D--0--0----------2-2-2-------|
A-------------0--0-0-0-2--4--|
E--------2--3----------------|

E--2--2----------3-3-3-------2--|
B--3--3----------2-2-2-------3--|
G--2--2----------2-2-2-------2--|
D--0--0----------2-2-2-------0--|
A-------------0--0-0-0-2--4-----|
E--------2--3-------------------|

For the normal choruses, the first part is repeated three times before the second part 
played.  For the outro, well, you can count that one out yourself.  It's about 2 full 
of the chorus.
Tap to rate this tab
# A B C D E F G H I J K L M N O P Q R S T U V W X Y Z