Song name
# A B C D E F G H I J K L M N O P Q R S T U V W X Y Z

Black Crowes - Here Comes Daylight tab

The Black Crowes
Song Title: Here Comes Daylight
TBC Original? Yes
Written By: Chris and Rich Robinson
Recording Session: Warpaint
Record: Warpaint
Live Debut: 10/11/2008
Shows: 4 times played live
Notes: recorded during the Warpaint sessions at Allaire Studios, Shokan, NY in July, 2007

--------------------------
The above information was taken from www.crowesbase.com

Tuning: DADGBE (Drop-D)

Intro/Verse:
E--2-----1-------------------------------2------|
B----3-----3---2---------3-----1-----------3----|
G------2-----2---0---------4-----0-----2-----2--|
D--0-----------2-------------4-----2-0----------|
A------------------0--0--2-----3----------------|
D-----------------------------------------------|

Chorus:
E----7-7--7---5-5--5---5-5--5---3-3--3--|
B----8-8--8---7-7--7---5-5--5---3-3--3--|
G----7-7--7---7-7--7---5-5--5---4-4--4--| x4
D----0-0--0---0-0--0---0-0--0---0-0--0--|
A---------------------------------------|
D--0--------0--------0--------0---------|

E--3-----3-----2----3-----3-----2--------0--|
B----3-----3----------3-----3-----3---3--2--|
G--4---4-3---3-2----4---4-3---3-2---2----0--|
D----------------------------------------2--|
A----------------------------------------0--|
D-------------------------------------------|

Interlude:
E--0--0-----------2-2--------|
B--5\-2--0-2-2--0-0---0---0--|
G--0--0--0-0-0--0-2-----2----|
D--5\-2--0-2-2--0-0----------|
A--0--0----------------------|
D----------------------------|

E--------------0-0-----------2-2--------|
B----0-----0---2-2--0-2-2--0-0---0---0--|
G------0-----0-0-0--0-0-0--0-2-----2----| x2
D--------------2-2--0-2-2--0-0----------|
A--------------0-0----------------------|
D--2-----3------------------------------|

E--------------0-0-----------2--|
B----0-----0---2-2--0-2-2--0-3--|
G------0-----0-0-0--0-0-0--0-2--|
D--------------2-2--0-2-2--0-0--|
A--------------0-0--------------|
D--2-----3----------------------|

Outro:
E--3-----3-----2--------|
B----3-----3-----3------|
G--4---4-3---3-2--------| x3
D-----------------------|
A-----------------------|
D------------------0-0--|

E--3-----3-----2--|
B----3-----3---3--|
G--4---4-3---3-2--|
D--------------0--|
A--------------0--|
D--------------0--|
Tap to rate this tab
 
# A B C D E F G H I J K L M N O P Q R S T U V W X Y Z