Song name
# A B C D E F G H I J K L M N O P Q R S T U V W X Y Z

Black Crowes - Pastoral tab

The Black Crowes
Song Title: Pastoral
TBC Original? Yes
Written By: Chris and Rich Robinson
Recording Session: Three Snakes and One Charm
Record: Never Released
Live Debut: 03/16/1995
Shows: 3 times played live
Related Song: Pastoral Jam
Notes: A studio version of this song was recorded on January 6, 1996 but remains
It was only performed with vocals on 3 occasions (3/16/95, 3/18/95, 12/19/95).

-----------------------
The above information was taken from www.crowesbase.com

There is an instrumental studio version of this song floating around that seems like
in open F, but the tape sounds a little slow, and the only live version I have is in open
so I'll tab this in open G (notation is obviously exactly the same, it's just that the 
would sound a full step lower in open F).  The live versions have lyrics, so the verses
choruses here correspond to those.

Tuning: DGDGBD (Open G)

Intro:
D-------------------|
B--7-7-7-7-7-7-7-7--|
G--7-7-7-7-7-7-7-7--| x6
D--7-7-7-7-7-7-7-7--|
G--7-7-7-7-7-7-7-7--|
D--0----------------|

D----------------------------|
B----------7--7-7-7-7-7-7-7--|
G--4/5-4-2-7--7-7-7-7-7-7-7--| x2
D----------------------------|
G--4/5-4-2-7--7-7-7-7-7-7-7--|
D----------0--0--------------|

D----------------------------|
B----------7--7-7-7-7-7-7-7--|
G--4/5-4-2-7--7-7-7-7-7-7-7--|
D----------------------------|
G--4/5-4-2-7--7-7-7-7-7-7-7--|
D----------0--0--------------|

D-------------------|
B--7-7-7-7-7-7-7-7--|
G--7-7-7-7-7-7-7-7--| x2
D--7-7-7-7-7-7-7-7--|
G--7-7-7-7-7-7-7-7--|
D--0----------------|

D----------------|
B--5----0--1--0--|
G--5----0--0--0--|
D-------0--2--0--|
G--5----0--0--0--|
D----------------|

Verse:
D----------------------------|
B--8-8--7-7--5-5--3-3--1--1--|
G--9-9--7-7--5-5--4-4--2--2--|
D----------------------------|
G--9-9--7-7--5-5--4-4--2--2--|
D----------------------------|

Chorus:
D----------|
B--5----7--|
G--5----7--| x2
D--5----7--|
G--5----7--|
D-------0--|

D----------------|
B--5----0--1--0--|
G--5----0--0--0--|
D--5----0--2--0--|
G--5----0--0--0--|
D----------------|

Solo Rhythm/Outro:
D----------------------------|
B--7-7--0-0--7-7--0-0--0--0--|
G--7-7--0-0--7-7--0-0--0--0--| x2
D--7-7--0-0--7-7--0-0--0--0--|
G--7-7--0-0--7-7--0-0--0--0--|
D----------------------------|

D----------------------------|
B--5-5--0-0--5-5--0-0--0--0--|
G--5-5--0-0--5-5--0-0--0--0--|
D--5-5--0-0--5-5--0-0--0--0--|
G--5-5--0-0--5-5--0-0--0--0--|
D----------------------------|

D----------------------------|
B--7-7--0-0--7-7--0-0--0--0--|
G--7-7--0-0--7-7--0-0--0--0--|
D--7-7--0-0--7-7--0-0--0--0--|
G--7-7--0-0--7-7--0-0--0--0--|
D----------------------------|

The whole solo rhythm figure is repeated twice for the first solo, then for about two
at the end of the song (as Rich joins in on the fun with some lead parts of his own).
it's finally time to bring this song to a close, simply play the following:

D-----------|
B--7--0--7--|
G--7--0--7--|
D--7--0--7--|
G--7--0--7--|
D--0-----0--|
Tap to rate this tab
 
# A B C D E F G H I J K L M N O P Q R S T U V W X Y Z