Song name
# A B C D E F G H I J K L M N O P Q R S T U V W X Y Z

Black Crowes - Jealous Again tab

The Black Crowes
Song Title: Jealous Again
TBC Original? Yes
Written By: Chris and Rich Robinson
Recording Session: Shake Your Money Maker
Record: Shake Your Money Maker
Live Debut: 03/23/1990
Shows: 917 times played live
Notes: "Narcissistic and arrogant. Sure everyone feels jealous about someone else but
this time someone will be jealous over me. In a way, it's a song for the band, when the
are feeling nervous and cold and desperate." (Chris) Live acoustic versions are 
on Shake Your Money Maker B-sides as well as the B-side of the Wiser Time digi-pack
Chris used to alternate "cocaine" for "sugar" in the second verse.

------------------------
The above information was taken from www.crowesbase.com

Tuning: DGDGBD (Open G)

This one is pretty much straight from the SYMM tab book.  I made a few small changes.

D-----7---------------------------|
B--/7-7-----------------8---------|
G--/7---7--------7------7------7--|
D---------9-7--7-7--7h9---9-7--7--|
G---------9-7----7--7-----7-7--7--|
D---------------------------------|

D----7------------------------------|
B--7------------------7h8-8-8-------|
G--7-------------7-7--7---7-7-7--7--|
D--0---0-9-7-7h9-7-7--7h9---9-7--7--|
G--------9-7-7---7-7--7-----7-7--7--|
D-----------------------------------|

D----------------------------------|
B--7--7--------------7h8-8---------|
G--7--7-9-7-7---7-7--7---7---7--7--|
D--0--0-9-7-7h9-7-7--7h9---9-7--7--|
G-------9-7-7---7-7--7-----7-7--7--|
D----------------------------------|

D------------------------------------|
B--7--7--------------8-7-8-7---------|
G--7--7-9-7-7---7-7--7-7-7-7--7-7-7--|
D--0--0-9-7-7h9-7-7--9-7-9-7--7-7-7--|
G-------9-7-7---7-7--7-7-7-7--7-9-7--|
D------------------------------------|

Verse:
D-----------------------------------------------------------|
B----------------------------------8----------8-7-8---------|
G--7-7-7-7-7--7-7--7-7-7-7--7-7--7-7-7-7--7-7-7-7-7-7--7-7--|
D--7-7-9-7-7--7-7--7-9-7-7--9-7--7-9-7-7--9-7-9-7-9-7--7-9--|
G--7-7-7-7-7--9-7--7-7-7-7--7-7--7-7-7-7--7-7-7-7-7-7--7-7--|
D-----------------------------------------------------------|

D----------------------------------------------------------|
B----------------------------------8----------8-7-8--------|
G--7-7-7-7-7--7-7--7-7-7-7--7-7--7-7-7-7--7-7-7-7-7-7--5/--|
D--7-7-9-7-7--7-7--7-9-7-7--9-7--7-9-7-7--9-7-9-7-9-7--5/--|
G--7-7-7-7-7--9-7--7-7-7-7--7-7--7-7-7-7--7-7-7-7-7-7--5/--|
D----------------------------------------------------------|

Chorus:
D-------------------------------------------------------|
B-------8--8--------------------------------------------|
G--7--7-7--7-7-7--5-5--7--7-4--4-7--7-0--0-0-0-0-0-0-0--| x2
D--7--7-9--9-7-7--5-5--7--7-4--4-7--7-0--0-2-0-2-0-0-0--|
G--7--7-7--7-7-7--5-5--7--7-4--4-7--7-0--0-0-0-0-0-0-0--|
D-------------------------------------------------------|

Break:
D--------------------------------------------|
B------1------1p0----------------------------|
G------0----------0--------0--------------0--| x2
D--0h2------2-2p0------0h2------2p0----------|
G-----------------------------------2p0-0----|
D--------------------------------------------|

Bridge:
D---0-0-0-0-0----0---0--|
B--/7-----7-5-3----3-3--|
G-----------------------| x10
D-----------------------|
G-----------------------|
D-----------------------|

D---0-0-0--0-0----0----0----0----0----0-0--|
B--/7-----/7---/7---/7---/7---/7---/7------|
G------------------------------------------|
D------------------------------------------|
G------------------------------------------|
D------------------------------------------|

This part sounds extremely awkward when played by itself because of those two ringing D
after the first F#, but if you listen to the album, this is what Rich is playing.

Outro/Solo Rhythm:
D--0----0--|
B--1----0--|
G--0----0--|
D--2----0--|
G--0----0--|
D----------|

Just alternate between these two chords in time with the song.
Tap to rate this tab
 
# A B C D E F G H I J K L M N O P Q R S T U V W X Y Z