Song name
# A B C D E F G H I J K L M N O P Q R S T U V W X Y Z

Black Crowes - Miracle To Me tab

The Black Crowes
Song Title: Miracle To Me
TBC Original? Yes
Written By: Chris and Rich Robinson
Recording Session: Lions
Record: Lions, Live
Live Debut: 04/26/2001
Shows: 61 times played live
Notes: none at this time.

-----------------------------
The above information was taken from www.crowesbase.com

Tuning: EADGBE (Standard)

Notable Chords:
   Em  B7/Eb  D  A7/C#  C   Cm   C/A  D/A  F/D  G/D
E-------------------------------------------5----7----|
B--8----10----7----8----5----4----5----7----6----8----|
G--9-----8----7----6----5----5----5----7----5----7----|
D--9-----9----7----7----5----5----5----7----0----0----|
A--7-----6----5----4----3----3----0----0--------------|
E-----------------------------------------------------|


Intro:
E--------0-----------0---------0-----------------------0-----------0------2--|
B------7---7-------7---7-----7---7-------5-7---------7---7-------7---7----3--|
G----7-------7---7---------7-------7---7-----7-----7-------7---7-------7--2--|
D--9-----------8---------7-----------6---------6-5-----------4------------0--|
A----------------------------------------------------------------------------|
E----------------------------------------------------------------------------|

       Esus4/D   Esus4/D     A
E------0--0------0--0------0-0--|
B------0--0------0--0------0-2--|
G------2--2------2--2------2-2--| x2
D------0--0------0--0------0-2--|
A------0--0------0--0------0-0--|
E--0h2-------0h2-------0h2------|

Note: These chords are played throughout the verse, but to keep things neat in this tab, 
just going to include the chord names.

Verses:
Esus4/D Esus4/D     A
Come on off of your rooftop
Esus4/D Esus4/D     A
Come on down to the street
Esus4/D       Esus4/D      A
Well I've got something to tell you

E--------------------0-------------------|
B--3-1-0-3--3-3-3-3--2--0-2-----0-2------|
G--0-----4--4-4-4-4--2------2-------2----|
D--2-----4--4-4-4-4--2-------------------|
A--3-----2--2-2-2-2--0--------0-------0--|
E----------------------------------------|
Your secrets I will keep

Esus4/D Esus4/D           A
Tell me why have you been crying
Esus4/D       Esus4/D        A
Why won't you look me in the eye
Esus4/D  Esus4/D     A
I'm just trying to help you

E-------------0--|
B--3-1-0-3----2--|
G--0-----4----2--|
D--2-----4----2--|
A--3-----2----0--|
E----------------|
And I just need to know why

E-------------0--|
B--3-1-0-3----2--|
G--0-----4----2--|
D--2-----4----2--|
A--3-----2----0--|
E----------------|
Please won't you let me try

Chorus:
Em    B7/Eb   D	    A7/C#  C
Be my secret, be my joy
Cm		   G
Be a miracle to me
Em    B7/Eb  D		A7/C#   C
Be my lover, baby be my friend
Cm		   G
Be a miracle to me

(The remaining verses and choruses follow the same progression)

Solo Rhythm:
A  C/A  D/A  A x2
D  F/D  G/D  D
A  C/A  D/A  A
Tap to rate this tab
# A B C D E F G H I J K L M N O P Q R S T U V W X Y Z