Black Crowes - She Talks To Angels tab

-------------------------------------------------------------------------------
		  She Talks to Angels - The Black Crowes
-------------------------------------------------------------------------------
Tabbed by:Riff Driven
Email:musicmedicates@yahoo.com

Tuning:Open E (low to high:E B E G# B E)

I noticed that most of the tabs for this song were either a bit off,
or just wrong altogether. I decided to post my version, I think it's right,
if not than it's very close, but all opinions are more than welcome. If you
make any corrections I will give full credit to you for your hard work.
Thank you and I hope you enjoy!

Intro
e |-------0----------0----------0-------------0--|
B |--4/5-----4\2--0-----0h1--0-----1--1p0-----0--|
G#|----------------------------------------0--0--|
E |-------------------------------------------0--|
B |----------------------------------------------|
E |----------------------------------------------|

e |-------0----------0----------0-------------0--|
B |--4/5-----4\2--0-----0h1--0-----1--1p0-----0--|
G#|----------------------------------------0--0--|
E |-------------------------------------------0--|
B |-------------------------------------------0--|
E |----------------------------------------------|

     v ^  v  v  v^  v  v  v  v      v     v
e |--0-0--0--0---0--0--0--0--0-----+12+--+7+-------|
B |--0-0--0--0---0--0--0--0--0-----+12+--+7+-------|
G#|--0-0--0--0---0--1--0--1--0-----+12+--+7+-------|
E |--0-0--0--0--0---2--0--2--0-----+12+--+7+-------|
B |--0-0--0--0--0---2--0--2--0-----+12+--+7+-------|
E |-----------------------0--0-----+12+--+7+-------|

     v   v  v^  v  v  v  v
e |--0---0---0--0--0--0--0---------------------------------------|
B |--0---0---0--0--0--0--0------------------------------0--------|
G#|--0---0---0--1--0--1--0------0--3p0---5p3---0h3p0-------2--0--|
E |--0---0--0---2--0--2--0--2/4--------0-----0-------0-----------|
B |--0---0--0---2--0--2--0---------------------------------------|
E |-------------------0--0---------------------------------------|

     v   v  v^  v  v  v  v
e |--0---0---0--0--0--0--0--0---0---0---0---0---0----------|
B |--0---0---0--0--0--0--0----5---4---2---0-------------0--|
G#|--0---0---0--1--0--1--0--------------------1-----0------|
E |--0---0--0---2--0--2--0------------------------2---0----|
B |--0---0--0---2--0--2--0---------------------------------|
E |-------------------0--0---------------------------------|

     v   v  v^  v  v  v  v
e |--0---0---0--0--0--0--0---|
B |--0---0---0--0--0--0--0---|
G#|--0---0---0--1--0--1--0---|
E |--0---0--0---2--0--2--0---|
B |--0---0--0---2--0--2--0---|
E |-------------------0--0---|

Verse                           v  v  v^  v  v  v  v
e |-----------------------------0--0---0--0--0--0--0--|
B |-----------------------------0--0---0--0--0--0--0--|
G#|-----------------------------0--0---0--1--0--1--0--|
E |-----------------------------0--0--0---2--0--2--0--|
B |-----------------------------0--0--0---2--0--2--0--|
E |---------------------------------------------0--0--|
   She never mentions the word addiction...

                        v ^  v  v  v^  v  v  v  v
e |---------------------0-0--0--0---0--0--0--0--0--|
B |---------------------0-0--0--0---0--0--0--0--0--|
G#|---------------------0-0--0--0---0--1--0--1--0--|
E |---------------------0-0--0--0--0---2--0--2--0--|
B |---------------------0-0--0--0--0---2--0--2--0--|
E |------------------------------------------0--0--|
   In      certian    company...

                        v ^  v  v  v^  v  v  v  v
e |---------------------0-0--0--0---0--0--0--0--0--|
B |---------------------0-0--0--0---0--0--0--0--0--|
G#|---------------------0-0--0--0---0--1--0--1--0--|
E |---------------------0-0--0--0--0---2--0--2--0--|
B |---------------------0-0--0--0--0---2--0--2--0--|
E |------------------------------------------0--0--|
  Yes she'll tell you she's an orphan...

                        v ^  v  v  v^  v  v  v  v  ^ v ^ v ^ v ^ v ^ v ^ v ^
e |---------------------0-0--0--0---0--0--0--0--0--0-0-0-0-0-0-0-0-0-0-0-0-0-|
B |---------------------0-0--0--0---0--0--0--0--0--5-5-5-5-5-5-5-5-5-5-5-5-5-|
G#|---------------------0-0--0--0---0--1--0--1--0--0-0-0-0-0-0-0-0-0-0-0-0-0-|
E |---------------------0-0--0--0--0---2--0--2--0--0-0-0-0-0-0-0-0-0-0-0-0-0-|
B |---------------------0-0--0--0--0---2--0--2--0--0-0-0-0-0-0-0-0-0-0-0-0-0-|
E |------------------------------------------0--0--0-0-0-0-0-0-0-0-0-0-0-0-0-|
   After  you meet her family...

Chorus
     v  v  v  v ^  v  v  v  v   v  v   v ^ v   v ^ v  v   v  v  v  v
e |--7--7--7--7-7--7--7-----5---5--5---5-5-5---5-5-0--0---0--0--0--0-|
B |--7--7--7--7-7--7--7-----5---5--5---5-5-5---5-5-0--0---0--0--0--0-|
G#|--7--7--8--8-8--8--7--0--5---5--5---5-5-5---5-5-0--0---1--0--1--0-|
E |--7--7--7--7-7--7--7--0--5---5--5---5-5-5---5-5-0--0---2--0--2--0-|
B |--7--7--9--9-9--9--7--0--5---5--5---5-5-5---5-5-0--0---2--0--2--0-|
E |--7--7--7--7-7--7--7--0--5---5--5---5-5-5---5-5-0--0---0--0--0--0-|

     v v  v ^ v  v ^ v ^
e |--0-0--0-0-0--0-0-0-0--|
B |--0-0--0-0-0--0-0-0-0--|
G#|--0-0--0-0-0--0-0-0-0--|
E |--0-0--0-0-0--0-0-0-0--|
B |--0-0--0-0-0--0-0-0-0--|
E |--0-0--0-0-0--0-0-0-0--|

     v  v  v  v ^  v  v  v  v   v  v   v ^ v   v ^ v  v   v  v  v  v
e |--7--7--7--7-7--7--7-----5---5--5---5-5-5---5-5-0--0---0--0--0--0-|
B |--7--7--7--7-7--7--7-----5---5--5---5-5-5---5-5-0--0---0--0--0--0-|
G#|--7--7--8--8-8--8--7--0--5---5--5---5-5-5---5-5-0--0---1--0--1--0-|
E |--7--7--7--7-7--7--7--0--5---5--5---5-5-5---5-5-0--0---2--0--2--0-|
B |--7--7--9--9-9--9--7--0--5---5--5---5-5-5---5-5-0--0---2--0--2--0-|
E |--7--7--7--7-7--7--7--0--5---5--5---5-5-5---5-5-0--0---0--0--0--0-|

     v     v    v  v  v  v  v  v
e |-+12+--+7+---0--0--0--0--0--0--|
B |-+12+--+7+---0--0--0--0--0--0--|
G#|-+12+--+7+---0--0--1--0--1--0--|
E |-+12+--+7+---0--0--2--0--2--0--|
B |-+12+--+7+---0--0--2--0--2--0--|
E |-+12+--+7+---0--0--0--0--0--0--|

Verse                              v ^  v  v  v^  v  v  v  v
e |--------------------------------0-0--0--0---0--0--0--0--0--|
B |--------------------------------0-0--0--0---0--0--0--0--0--|
G#|--------------------------------0-0--0--0---0--1--0--1--0--|
E |--------------------------------0-0--0--0--0---2--0--2--0--|
B |--------------------------------0-0--0--0--0---2--0--2--0--|
E |-----------------------------------------------------0--0--|
   She paints her eyes as black as night now...

                           v  v  ^  v  v  v  v
e |------------------------0--0--0--0--0--0--0--|
B |------------------------0--0--0--0--0--0--0--|
G#|------------------------0--0--0--1--0--1--0--|
E |------------------------0--0--0--2--0--2--0--|
B |------------------------0--0--0--2--0--2--0--|
E |---------------------------------------0--0--|
   Pulls those shades down tight...

                           v ^  v  v  v^  v  v  v  v
e |------------------------0-0--0--0---0--0--0--0--0--|
B |------------------------0-0--0--0---0--0--0--0--0--|
G#|------------------------0-0--0--0---0--1--0--1--0--|
E |------------------------0-0--0--0--0---2--0--2--0--|
B |------------------------0-0--0--0--0---2--0--2--0--|
E |---------------------------------------------0--0--|
   Yeah she gives a smile when the pain comes...

                                  v ^  v  v  v^  v  v  v  v  ^ v ^ v ^ v ^
e |-------------------------------0-0--0--0---0--0--0--0--0--0-0-0-0-0-0-0--|
B |-------------------------------0-0--0--0---0--0--0--0--0--5-5-5-5-5-5-5--|
G#|-------------------------------0-0--0--0---0--1--0--1--0--0-0-0-0-0-0-0--|
E |-------------------------------0-0--0--0--0---2--0--2--0--0-0-0-0-0-0-0--|
B |-------------------------------0-0--0--0--0---2--0--2--0--0-0-0-0-0-0-0--|
E |----------------------------------------------------0--0--0-0-0-0-0-0-0--|
   The pain gonna make everything alright...                    Says she talks

Chorus
     v  v  v  v ^  v  v  v  v   v  v   v ^ v   v ^ v  v   v  v  v  v
e |--7--7--7--7-7--7--7-----5---5--5---5-5-5---5-5-0--0---0--0--0--0-|
B |--7--7--7--7-7--7--7-----5---5--5---5-5-5---5-5-0--0---0--0--0--0-|
G#|--7--7--8--8-8--8--7--0--5---5--5---5-5-5---5-5-0--0---1--0--1--0-|
E |--7--7--7--7-7--7--7--0--5---5--5---5-5-5---5-5-0--0---2--0--2--0-|
B |--7--7--9--9-9--9--7--0--5---5--5---5-5-5---5-5-0--0---2--0--2--0-|
E |--7--7--7--7-7--7--7--0--5---5--5---5-5-5---5-5-0--0---0--0--0--0-|
  to angels                              they call her out by her name
     v v  v ^ v  v ^ v ^
e |--0-0--0-0-0--0-0-0-0--|
B |--5-5--5-5-5--5-5-5-5--|
G#|--0-0--0-0-0--0-0-0-0--|
E |--0-0--0-0-0--0-0-0-0--|
B |--0-0--0-0-0--0-0-0-0--|
E |--0-0--0-0-0--0-0-0-0--|
       Oh yeah she talks to
     v  v  v  v ^  v  v  v  v   v  v   v ^ v   v ^ v  v   v  v  v  v
e |--7--7--7--7-7--7--7-----5---5--5---5-5-5---5-5-0--0---0--0--0--0-|
B |--7--7--7--7-7--7--7-----5---5--5---5-5-5---5-5-0--0---0--0--0--0-|
G#|--7--7--8--8-8--8--7--0--5---5--5---5-5-5---5-5-0--0---1--0--1--0-|
E |--7--7--7--7-7--7--7--0--5---5--5---5-5-5---5-5-0--0---2--0--2--0-|
B |--7--7--9--9-9--9--7--0--5---5--5---5-5-5---5-5-0--0---2--0--2--0-|
E |--7--7--7--7-7--7--7--0--5---5--5---5-5-5---5-5-0--0---0--0--0--0-|
    angels                          Says they call her out by her name
     v     v    v  v  v ^ v  v  v  v
e |-+12+--+7+---0--0--0-0-0--0--0--0--|
B |-+12+--+7+---0--0--0-0-0--0--0--0--|
G#|-+12+--+7+---0--0--0-0-1--0--1--0--|
E |-+12+--+7+---0--0--0-0-2--0--2--0--|
B |-+12+--+7+---0--0--0-0-2--0--2--0--|
E |-+12+--+7+---0--0--0-0-0--0--0--0--|

Verse                            v ^  v  v  v^  v  v  v  v
e |------------------------------0-0--0--0---0--0--0--0--0--|
B |------------------------------0-0--0--0---0--0--0--0--0--|
G#|------------------------------0-0--0--0---0--1--0--1--0--|
E |------------------------------0-0--0--0--0---2--0--2--0--|
B |------------------------------0-0--0--0--0---2--0--2--0--|
E |---------------------------------------------------0--0--|
   She keeps a lock of hair in her pocket...

                           v ^  v  v  v^  v  v  v  v
e |------------------------0-0--0--0---0--0--0--0--0--|
B |------------------------0-0--0--0---0--0--0--0--0--|
G#|------------------------0-0--0--0---0--1--0--1--0--|
E |------------------------0-0--0--0--0---2--0--2--0--|
B |------------------------0-0--0--0--0---2--0--2--0--|
E |---------------------------------------------0--0--|
   She wears a cross around her neck...

                           v ^  v  v  v^  v  v  v  v
e |------------------------0-0--0--0---0--0--0--0--0--|
B |------------------------0-0--0--0---0--0--0--0--0--|
G#|------------------------0-0--0--0---0--1--0--1--0--|
E |------------------------0-0--0--0--0---2--0--2--0--|
B |------------------------0-0--0--0--0---2--0--2--0--|
E |---------------------------------------------0--0--|
   Yes the hair is from a little boy...

                                  v ^  v  v  v^  v  v  v  v  ^ v ^ v ^ v ^
e |-------------------------------0-0--0--0---0--0--0--0--0--0-0-0-0-0-0-0--|
B |-------------------------------0-0--0--0---0--0--0--0--0--5-5-5-5-5-5-5--|
G#|-------------------------------0-0--0--0---0--1--0--1--0--0-0-0-0-0-0-0--|
E |-------------------------------0-0--0--0--0---2--0--2--0--0-0-0-0-0-0-0--|
B |-------------------------------0-0--0--0--0---2--0--2--0--0-0-0-0-0-0-0--|
E |----------------------------------------------------0--0--0-0-0-0-0-0-0--|
   And the cross is someone she has not met      well not yet  Says she talks

Chorus
     v  v  v  v ^  v  v  v  v   v  v   v ^ v   v ^ v  v   v  v  v  v
e |--7--7--7--7-7--7--7-----5---5--5---5-5-5---5-5-0--0---0--0--0--0-|
B |--7--7--7--7-7--7--7-----5---5--5---5-5-5---5-5-0--0---0--0--0--0-|
G#|--7--7--8--8-8--8--7--0--5---5--5---5-5-5---5-5-0--0---1--0--1--0-|
E |--7--7--7--7-7--7--7--0--5---5--5---5-5-5---5-5-0--0---2--0--2--0-|
B |--7--7--9--9-9--9--7--0--5---5--5---5-5-5---5-5-0--0---2--0--2--0-|
E |--7--7--7--7-7--7--7--0--5---5--5---5-5-5---5-5-0--0---0--0--0--0-|
  to angels                             Says they all know her name
     v v  v ^ v  v ^ v ^
e |--0-0--0-0-0--0-0-0-0--|
B |--5-5--5-5-5--5-5-5-5--|
G#|--0-0--0-0-0--0-0-0-0--|
E |--0-0--0-0-0--0-0-0-0--|
B |--0-0--0-0-0--0-0-0-0--|
E |--0-0--0-0-0--0-0-0-0--|
       Oh yeah she talks to
     v  v  v  v ^  v  v  v  v   v  v   v ^ v   v ^ v  v   v  v  v  v
e |--7--7--7--7-7--7--7-----5---5--5---5-5-5---5-5-0--0---0--0--0--0-|
B |--7--7--7--7-7--7--7-----5---5--5---5-5-5---5-5-0--0---0--0--0--0-|
G#|--7--7--8--8-8--8--7--0--5---5--5---5-5-5---5-5-0--0---1--0--1--0-|
E |--7--7--7--7-7--7--7--0--5---5--5---5-5-5---5-5-0--0---2--0--2--0-|
B |--7--7--9--9-9--9--7--0--5---5--5---5-5-5---5-5-0--0---2--0--2--0-|
E |--7--7--7--7-7--7--7--0--5---5--5---5-5-5---5-5-0--0---0--0--0--0-|
    angels                          Says they call her out by her name

Bridge
     v v  v ^ v ^  v ^  V   v ^ v  v ^ v
e |---------------------0---2-2-2--2-2-2--|
B |---------------------0---0-0-0--0-0-0--|
G#|---------------------0---1-1-1--1-1-1--|
E |--7-7--7-7-7-7--7-7--0---0-0-0--0-0-0--|
B |--5-5--4-4-4-4--5-0--0---2-2-2--2-2-2--|
E |--5-5--5-5-5-5--5-0--0---0-0-0--0-0-0--|
   She don't know no lover

     v v  v ^ v ^  v ^  V   v ^ v  v ^ v
e |---------------------0---2-2-2--2-2-2--|
B |---------------------0---0-0-0--0-0-0--|
G#|---------------------0---1-1-1--1-1-1--|
E |--7-7--7-7-7-7--7-7--0---0-0-0--0-0-0--|
B |--5-5--4-4-4-4--5-0--0---2-2-2--2-2-2--|
E |--5-5--5-5-5-5--5-0--0---0-0-0--0-0-0--|
   None that I've ever seen

     v v  v ^ v ^  v ^  V   v ^ v  v ^ v
e |---------------------0---2-2-2--2-2-2--|
B |---------------------0---0-0-0--0-0-0--|
G#|---------------------0---1-1-1--1-1-1--|
E |--7-7--7-7-7-7--7-7--0---0-0-0--0-0-0--|
B |--5-5--4-4-4-4--5-0--0---2-2-2--2-2-2--|
E |--5-5--5-5-5-5--5-0--0---0-0-0--0-0-0--|
   Yeah to her that ain't nothing   but to me

     v v v ^ v ^ v ^ v ^ v ^ v ^  v  v  v ^ v ^ v v
e |-------------------------------0--0--0-0-0-0-0-0-|
B |------7-7-7-7-7-7-7-7-7-7-7-7--0--0--0-0-0-0-0-0-|
G#|------x-x-x-x-x-x-x-x-x-x-x-x--0--0--0-0-1-0-1-0-|
E |--7-7-7-7-7-7-7-7-7-7-7-7-7-7--0--0--0-0-2-0-2-0-|
B |--5-5-5-5-5-5-5-5-5-5-5-5-5-5--0--0--0-0-2-0-2-0-|
E |--5-5-5-5-5-5-5-5-5-5-5-5-5-5--0--0--0-0-0-0-0-0-|
   it means      means everything

     v     v    v  v  v ^ v  v  v  v
e |-+12+--+7+---0--0--0-0-0--0--0--0--|
B |-+12+--+7+---0--0--0-0-0--0--0--0--|
G#|-+12+--+7+---0--0--0-0-1--0--1--0--|
E |-+12+--+7+---0--0--0-0-2--0--2--0--|
B |-+12+--+7+---0--0--0-0-2--0--2--0--|
E |-+12+--+7+---0--0--0-0-0--0--0--0--|

Verse                              v ^  v  v  v^  v  v  v  v
e |--------------------------------0-0--0--0---0--0--0--0--0--|
B |--------------------------------0-0--0--0---0--0--0--0--0--|
G#|--------------------------------0-0--0--0---0--1--0--1--0--|
E |--------------------------------0-0--0--0--0---2--0--2--0--|
B |--------------------------------0-0--0--0--0---2--0--2--0--|
E |-----------------------------------------------------0--0--|
   She paints her eyes as black as night now...

                           v  v  ^  v  v  v  v
e |------------------------0--0--0--0--0--0--0--|
B |------------------------0--0--0--0--0--0--0--|
G#|------------------------0--0--0--1--0--1--0--|
E |------------------------0--0--0--2--0--2--0--|
B |------------------------0--0--0--2--0--2--0--|
E |---------------------------------------0--0--|
   Pulls those shades down tight...

                           v ^  v  v  v^  v  v  v  v
e |------------------------0-0--0--0---0--0--0--0--0--|
B |------------------------0-0--0--0---0--0--0--0--0--|
G#|------------------------0-0--0--0---0--1--0--1--0--|
E |------------------------0-0--0--0--0---2--0--2--0--|
B |------------------------0-0--0--0--0---2--0--2--0--|
E |---------------------------------------------0--0--|
  Oh yeah there's a smile when the pain comes...

                                  v ^  v  v  v^  v  v  v  v  ^ v ^ v ^ v ^
e |-------------------------------0-0--0--0---0--0--0--0--0--0-0-0-0-0-0-0--|
B |-------------------------------0-0--0--0---0--0--0--0--0--5-5-5-5-5-5-5--|
G#|-------------------------------0-0--0--0---0--1--0--1--0--0-0-0-0-0-0-0--|
E |-------------------------------0-0--0--0--0---2--0--2--0--0-0-0-0-0-0-0--|
B |-------------------------------0-0--0--0--0---2--0--2--0--0-0-0-0-0-0-0--|
E |----------------------------------------------------0--0--0-0-0-0-0-0-0--|
   The pain gonna make everything alright, alright yeah         She talks

Chorus
     v  v  v  v ^  v  v  v  v   v  v   v ^ v   v ^ v  v   v  v  v  v
e |--7--7--7--7-7--7--7-----5---5--5---5-5-5---5-5-0--0---0--0--0--0-|
B |--7--7--7--7-7--7--7-----5---5--5---5-5-5---5-5-0--0---0--0--0--0-|
G#|--7--7--8--8-8--8--7--0--5---5--5---5-5-5---5-5-0--0---1--0--1--0-|
E |--7--7--7--7-7--7--7--0--5---5--5---5-5-5---5-5-0--0---2--0--2--0-|
B |--7--7--9--9-9--9--7--0--5---5--5---5-5-5---5-5-0--0---2--0--2--0-|
E |--7--7--7--7-7--7--7--0--5---5--5---5-5-5---5-5-0--0---0--0--0--0-|
  to angels                           Says they call her out by her name
     v v  v ^ v  v ^ v ^
e |--0-0--0-0-0--0-0-0-0--|
B |--5-5--5-5-5--5-5-5-5--|
G#|--0-0--0-0-0--0-0-0-0--|
E |--0-0--0-0-0--0-0-0-0--|
B |--0-0--0-0-0--0-0-0-0--|
E |--0-0--0-0-0--0-0-0-0--|
       Oh yeah yeah
     v  v  v  v ^  v  v  v  v   v  v   v ^ v   v ^ v  v   v  v  v  v
e |--7--7--7--7-7--7--7-----5---5--5---5-5-5---5-5-0--0---0--0--0--0-|
B |--7--7--7--7-7--7--7-----5---5--5---5-5-5---5-5-0--0---0--0--0--0-|
G#|--7--7--8--8-8--8--7--0--5---5--5---5-5-5---5-5-0--0---1--0--1--0-|
E |--7--7--7--7-7--7--7--0--5---5--5---5-5-5---5-5-0--0---2--0--2--0-|
B |--7--7--9--9-9--9--7--0--5---5--5---5-5-5---5-5-0--0---2--0--2--0-|
E |--7--7--7--7-7--7--7--0--5---5--5---5-5-5---5-5-0--0---0--0--0--0-|
    angels                                  Call her out by her name
    v v  v ^ v  v ^ v ^
e |--0-0--0-0-0--0-0-0-0--|
B |--5-5--5-5-5--5-5-5-5--|
G#|--0-0--0-0-0--0-0-0-0--|
E |--0-0--0-0-0--0-0-0-0--|
B |--0-0--0-0-0--0-0-0-0--|
E |--0-0--0-0-0--0-0-0-0--|
       Oh whoa
     v  v  v  v ^  v  v  v  v   v  v   v ^ v   v ^ v  v   v  v  v  v
e |--7--7--7--7-7--7--7-----5---5--5---5-5-5---5-5-0--0---0--0--0--0-|
B |--7--7--7--7-7--7--7-----5---5--5---5-5-5---5-5-0--0---0--0--0--0-|
G#|--7--7--8--8-8--8--7--0--5---5--5---5-5-5---5-5-0--0---1--0--1--0-|
E |--7--7--7--7-7--7--7--0--5---5--5---5-5-5---5-5-0--0---2--0--2--0-|
B |--7--7--9--9-9--9--7--0--5---5--5---5-5-5---5-5-0--0---2--0--2--0-|
E |--7--7--7--7-7--7--7--0--5---5--5---5-5-5---5-5-0--0---0--0--0--0-|
    angels                                They call her out by her name
    v v  v ^ v  v ^ v ^
e |--0-0--0-0-0--0-0-0-0--|
B |--5-5--5-5-5--5-5-5-5--|
G#|--0-0--0-0-0--0-0-0-0--|
E |--0-0--0-0-0--0-0-0-0--|
B |--0-0--0-0-0--0-0-0-0--|
E |--0-0--0-0-0--0-0-0-0--|
       Oh oh she talks to
     v  v  v  v ^  v  v  v  v   v  v   v ^ v   v ^
e |--7--7--7--7-7--7--7-----5---5--5---5-5-5---5-5-|
B |--7--7--7--7-7--7--7-----5---5--5---5-5-5---5-5-|
G#|--7--7--8--8-8--8--7--0--5---5--5---5-5-5---5-5-|
E |--7--7--7--7-7--7--7--0--5---5--5---5-5-5---5-5-|
B |--7--7--9--9-9--9--7--0--5---5--5---5-5-5---5-5-|
E |--7--7--7--7-7--7--7--0--5---5--5---5-5-5---5-5-|
    angels                        They call her out
     v  v  v  v ^  v  v  v  v   v  v   v ^ v   v ^
e |--7--7--7--7-7--7--7-----5---5--5---5-5-5---5-5-|
B |--7--7--7--7-7--7--7-----5---5--5---5-5-5---5-5-|
G#|--7--7--8--8-8--8--7--0--5---5--5---5-5-5---5-5-|
E |--7--7--7--7-7--7--7--0--5---5--5---5-5-5---5-5-|
B |--7--7--9--9-9--9--7--0--5---5--5---5-5-5---5-5-|
E |--7--7--7--7-7--7--7--0--5---5--5---5-5-5---5-5-|
    Yeah yeah                   call her out
     v  v  v  v ^  v  v  v  v   v  v   v ^ v   v ^ v  v   v  v  v  v
e |--7--7--7--7-7--7--7-----5---5--5---5-5-5---5-5-0--0---0--0--0--0-|
B |--7--7--7--7-7--7--7-----5---5--5---5-5-5---5-5-0--0---0--0--0--0-|
G#|--7--7--8--8-8--8--7--0--5---5--5---5-5-5---5-5-0--0---1--0--1--0-|
E |--7--7--7--7-7--7--7--0--5---5--5---5-5-5---5-5-0--0---2--0--2--0-|
B |--7--7--9--9-9--9--7--0--5---5--5---5-5-5---5-5-0--0---2--0--2--0-|
E |--7--7--7--7-7--7--7--0--5---5--5---5-5-5---5-5-0--0---0--0--0--0-|
   Don't you know that they                 call her out by her name


************************************

| v   downstroke
| ^   upstroke
| /   slide up
| \   slide down
| h   hammer-on
| p   pull-off
| ~   vibrato
| +   harmonic
| x   Mute note
| b   Bend
| pb  Pre-bend
| br  Bend release
| pbr Pre-bend release
| brb Bend release bend

************************************
Tap to rate this tab
 
# A B C D E F G H I J K L M N O P Q R S T U V W X Y Z