Black Crowes - Twice As Hard tab

Twice As Hard
The Black Crowes
1990 Shake Your Money Maker

I posted this because no one has any tabs with the solo included or any of the 
leads so I decided to post one.  Youíll need a slide for both guitars in this song.

Intro
D|--------------------------------------------------| 
B|--------------------------------------------------| 
G|--------------------------------------------------| 
D|--0-0--------5----5/0-0--------5----5/0-0---------| 
G|--0-0-2h4p2--5----5/0-0-2h4p2--5----5/0-0-2h4ph2--| 
D|--------------------------------------------------| 


D|--------------------------------------------------| 
B|-----------------------6----5---------------------| 
G|-----------------------5----5---------------------| 
D|5----5/0-0--------5----7----5---------------------| 
G|5----5/0-0-2h4p2--5----5----5-----0-3/2/0ó3/20----| 
D|--------------------------------------------------| 

During this part the two guitarists swap parts

Gtr I
D|--------------------------------------------------| 
B|--------------------------------------------------| 
G|-3/2/0-----0-------------3-3-3/2/0----------------| 
D|-------0-2----------------------------------------| 
G|--------------------------------------------------| 
D|--------------------------------------------------| 

Gtr II
D|--------------------------------------------------| 
B|--------------5-5-5-5-----------------5-5-5-5-----| 
G|--------------5-5-5-5-----------------5-5-5-5-----| 
D|--------------5-5-5-5-----------------5-5-5-5-----| 
G|--------------5-5-5-5-----------------5-5-5-5-----| 
D|--------------------------------------------------| 


D|--------------------------------------------------| 
B|--------------------------------------------------| 
G|-3/2/0-----0--------------3/20-----0--------------| 
D|-------0-2---------------------0-2----------------| 
G|--------------------------------------------------| 
D|--------------------------------------------------| 


D|--------------------------------------------------| 
B|--------------5-5-5-5------------------5-5-5-5----| 
G|--------------5-5-5-5------------------5-5-5-5----| 
D|--------------5-5-5-5------------------5-5-5-5----| 
G|--------------5-5-5-5------------------5-5-5-5----| 
D|--------------------------------------------------| 


Verse
D|--------------------------------------------------| 
B|--0-0-0-0--/5-5-5-5--/0-0-0-0--/5-5-5-5--/0-0-0-0-| 
G|--0-0-0-0--/5-5-5-5--/0-0-0-0--/5-5-5-5--/0-0-0-0-| 
D|--0-0-0-0--/5-5-5-5--/0-0-0-0--/5-5-5-5--/0-0-0-0-| 
G|--0-0-0-0--/5-5-5-5--/0-0-0-0--/5-5-5-5--/0-0-0-0-| 
D|--------------------------------------------------|


D|----------------------------------------------------| 
B|-/5-5-5-5--/0-0-0-0--/5-5-5-5----6----5----6----5---| 
G|-/5-5-5-5--/0-0-0-0--/5-5-5-5----5----5----5----5---| 
D|-/5-5-5-5--/0-0-0-0--/5-5-5-5----7----5----7----5---| 
G|-/5-5-5-5--/0-0-0-0--/5-5-5-5----5----5----5----5---| 
D|----------------------------------------------------|


Chorus *Itís the same as the intro just strummed looser
D|----------------------------------------------| 
B|-------------/5-5-5-5--/0---------/5-5-5-5----| 
G|-------------/5-5-5-5--/0---------/5-5-5-5----| 
D|--0-0--------/5-5-5-5--/0-0-------/5-5-5-5----| 
G|--0-0-2h4p2--/5-5-5-5--/0-0-2h4p--/5-5-5-5----| 
D|----------------------------------------------|


Post Chorus
D|----------------------| 
B|--6----5----6----5----| 
G|--5----5----5----5----| 
D|--7----5----7----5----| 
G|--5----5----5----5----| 
D|----------------------|


Solo
D|--------------------------------------------------| 
B|--------------------------------------------------| 
G|--/4--/4---2p0---0--2-0-----------0---------------| 
D|--/5--/5-------2--------2-0-------0--------0-2h5--| 
G|----------------------------3-3p2----0h2-4--------| 
D|--------------------------------------------------|



D|---------------------------------------------------| 
B|---------------------3-3-5-/8-8--------3-3-3/5/8-8-| 
G|--0-0----0-0-0-2/4-4------------0--2/4-------------| 
D|------2-------------------------0------------------| 
G|---------------------------------------------------| 
D|---------------------------------------------------|


D|-7b-7br5--------------------7b-7br5---------------| 
B|----------------3-3-3/5-8-8----------------13-13--| 
G|------------2/4----------------------------12-12--| 
D|-------------------------------------12h14-14-14--| 
G|---------0---------------------------12-----------| 
D|--------------------------------------------------|


D|-----------------------------------------------| 
B|----------------------13-----------------------| 
G|----------------------12-------------12--12/---| 
D|-14p12-12-12-12----12h14-14-12-12h14-----14/---| 
G|-12----12-12-12----12----12-12-12--------------| 
D|-----------------------------------------------|


Outro
D|------------------------------------------------------| 
B|--6----5----------------------------------------------| 
G|--5----5-------------------------------------55-5-5---| 
D|--7----5-------------------------------------55-5-5---| 
G|--5----5----0-3/2/0-3/2/0-3/2/0-3/2/0-3/2/0--55-5-5---| 
D|------------------------------------------------------|
Tap to rate this tab
 
# A B C D E F G H I J K L M N O P Q R S T U V W X Y Z