Song name
# A B C D E F G H I J K L M N O P Q R S T U V W X Y Z

Black Crowes - She Talks To Angels Acoustic tab

Tuning : E B E G# B E



Intro
|-------0--------0--------0-----------0----|
|--4/5----4\2--0--------0-------------0----|
|------------------0h1------1--1f-----0----|
|----------------------------------0--0----|
|-------------------------------------0----|
|-------------------------------------0----| Repeat twice
                                      v


|-0-0-0-0-0-0-0-0-0------~~~~~~~~~~--|
|-0-0-0-0-0-0-0-0-0------~~~~~~~~~~--|
|-0-0-0-0-0-1-0-1-0------~~~~~~~~~~--|
|-0-0-0-0-0-0-0-0-0------~~~~~~~~~~--|
|-0-0-0-0-0-2-0-2-0------~~~~~~~~~~--|Repeat twice  
|-0-0-0-0-0-0-0-0-0------~~~~~~~~~~--| 
Harmonize on the 12th and 7th fret after the first time

|----------------------------------------0-0-0-0-0-0-0-0-0|
|----------------2f----------------------0-0-0-0-0-0-0-0-0|
|--------0--3f--------0---3f-------------0-0-0-0-0-1-0-1-0|
|--2/4---------0-------------0--0---2f---0-0-0-0-0-0-0-0-0|
|----------------------------------------0-0-0-0-0-2-0-2-0|
|----------------------------------------0-0-0-0-0-0-0-0-0|

|-----0---0---0----0------------------0-0-0-0-0-0-0-0-0|
|--5---4----2----0--------------0-----0-0-0-0-0-0-0-0-0|
|---------------------1---------------0-0-0-0-0-1-0-1-0|
|---------------------------0---------0-0-0-0-0-0-0-0-0|
|-------------------------2---0-------0-0-0-0-0-2-0-2-0|
|-------------------------------------0-0-0-0-0-0-0-0-0|


Verse:
|-0-0-0-0-0-0-0-0-0------~~~~~~~~~~--|
|-0-0-0-0-0-0-0-0-0------~~~~~~~~~~--|
|-0-0-0-0-0-1-0-1-0------~~~~~~~~~~--|
|-0-0-0-0-0-0-0-0-0------~~~~~~~~~~--|
|-0-0-0-0-0-2-0-2-0------~~~~~~~~~~--| 
|-0-0-0-0-0-0-0-0-0------~~~~~~~~~~--| Repeat 4 times
She never mentions the word addiction...

Chours
|--7-----5----0-0-0-0-0-0-0-0-0--|
|--0-----0----0-0-0-0-0-0-0-0-0--|
|--0-----0----0-0-0-0-0-1-0-1-0--|
|--7-----5----0-0-0-0-0-0-0-0-0--| 
|--0-----0----0-0-0-0-0-2-0-2-0--|Repeat twice
|--0-----0----0-0-0-0-0-0-0-0-0--|THEN Harmonize the 12 and 7 fret once

2nd Verse:
|-0-0-0-0-0-0-0-0-0------~~~~~~~~~~--|
|-0-0-0-0-0-0-0-0-0------~~~~~~~~~~--|
|-0-0-0-0-0-1-0-1-0------~~~~~~~~~~--|
|-0-0-0-0-0-0-0-0-0------~~~~~~~~~~--|
|-0-0-0-0-0-2-0-2-0------~~~~~~~~~~--| Repeat 4 times
|-0-0-0-0-0-0-0-0-0------~~~~~~~~~~--|
She paints her eyes as black as night now


Chours:
|--7-----5----0-0-0-0-0-0-0-0-0--|
|--0-----0----0-0-0-0-0-0-0-0-0--|
|--0-----0----0-0-0-0-0-1-0-1-0--|
|--7-----5----0-0-0-0-0-0-0-0-0--| 
|--0-----0----0-0-0-0-0-2-0-2-0--|Repeat twie
|--0-----0----0-0-0-0-0-0-0-0-0--| THEN Harmonize the 12 and 7 fret second time


|-0-0-0-0-0-0-0-0-0------~~~~~~~~~~--|
|-0-0-0-0-0-0-0-0-0------~~~~~~~~~~--|
|-0-0-0-0-0-1-0-1-0------~~~~~~~~~~--|
|-0-0-0-0-0-0-0-0-0------~~~~~~~~~~--|
|-0-0-0-0-0-2-0-2-0------~~~~~~~~~~--| Repeat 5 times
|-0-0-0-0-0-0-0-0-0------~~~~~~~~~~--|



Chours:
|--7-----5----0-0-0-0-0-0-0-0-0--|
|--0-----0----0-0-0-0-0-0-0-0-0--|
|--0-----0----0-0-0-0-0-1-0-1-0--|
|--7-----5----0-0-0-0-0-0-0-0-0--| 
|--0-----0----0-0-0-0-0-2-0-2-0--|Repeat twie
|--0-----0----0-0-0-0-0-0-0-0-0--| 


Bridge

|5----0-0-0-0-0-0-0-0-0--|Play 5 times
|0----0-0-0-0-0-0-0-0-0--|Hold on the A then play the rest
|0----0-0-0-0-0-1-0-1-0--|
|5----0-0-0-0-0-0-0-0-0--| 
|0----0-0-0-0-0-2-0-2-0--|
|0----0-0-0-0-0-0-0-0-0--|
She don't know no lover

Chours:
|-0-0-0-0-0-0-0-0-0------~~~~~~~~~~--|
|-0-0-0-0-0-0-0-0-0------~~~~~~~~~~--|
|-0-0-0-0-0-1-0-1-0------~~~~~~~~~~--|
|-0-0-0-0-0-0-0-0-0------~~~~~~~~~~--|
|-0-0-0-0-0-2-0-2-0------~~~~~~~~~~--|Repeat twice  
|-0-0-0-0-0-0-0-0-0------~~~~~~~~~~--| 
Harmonize on the 12th and 7th fret after the first time


|-------0--------0--------0--------0----|
|--4/5----4\2--0--------0----------0----|
|------------------0h1------1p-----0----|
|-------------------------------0--0----|
|----------------------------------0----|
|----------------------------------0----|

|-0-0-0-0-0-0-0-0-0---|
|-0-0-0-0-0-0-0-0-0---|
|-0-0-0-0-0-1-0-1-0---|
|-0-0-0-0-0-0-0-0-0---|
|-0-0-0-0-0-2-0-2-0---| 
|-0-0-0-0-0-0-0-0-0---|



|--0---0---0---------0----------0-0-0-0-0-0-0-0-0|
|----5---4---2-0-0--------------0-0-0-0-0-0-0-0-0|
|------------------1---------0--0-0-0-0-0-1-0-1-0|
|------------------------0------0-0-0-0-0-0-0-0-0|
|----------------------2---0----0-0-0-0-0-2-0-2-0|
|-------------------------------0-0-0-0-0-0-0-0-0|

Repeat 2nd verse, Repeat chours then just play the B and A over and over. 


Tap to rate this tab
 
# A B C D E F G H I J K L M N O P Q R S T U V W X Y Z