Song name
# A B C D E F G H I J K L M N O P Q R S T U V W X Y Z

Black Crowes - Jealous Again tab

-----------------------------------------------------------------
              The Black Crowes - Jealous Again
-----------------------------------------------------------------

Albums: Shake Your Money Maker (1990)
Tabbed by: Joel C.
Email: jcboxfr AT yahoo DOT fr

Tuning: Open G tuning: DGDGBd

There are two guitars, one in G tuning and another one in standard tuning.
I transcribed here the main one in G open tuning, sometimes I slightly 
adapted the part to make it sounds good for one guitar alone.

Convention used: h: Hammer-On, p: Pull-Off, s: Slide

Structure: P1 P2 P2 P3 P2 P4 P5


P1: Time: 00:00

d|5s7--|---7------------------------------| ----------------------------------|
B|5-7--|---7------------------------------| -------8---------------------7----|
G|5-7--|-----7-------------------7--------| -------7-----7-------7-------7----|
D| ----|---------9---7-------7---7--------|7h9-------9---7-------7-------0----|
G| ----|---------9---7-----------7--------| -7-------7---7-------7------------|
D| ----|----------------------------------| ----------------------------------|
    |    * | | | * | | | * | | | * | | |     * | | | * | | | * | | | * | | |   

                                                     Drum start on last beat
d|---7------------------------------| ----------------------------------|
B|---7-7---------------7------------| -------8--------------------------|
G|-----7---------------7------------| -------7-------------7-------7----|
D|-----0---9---7-7h9-------7--------|7h9-------9---7-------7-------7----|
G|---------9---7---7-------7--------| -7-------7---7-------7-------7----|
D|----------------------------------| ----------------------------------|
   * | | | * | | | * | | | * | | |     * | | | * | | | * | | | * | | |   

d|----------------------------------| ----------------------------(7)---|
B|---------------------7------------| -------8---------------------7----|
G|-7---7---------------7------------| -------7-------------7-------7----|
D|-7---7---9---7-7h9-------7--------|7h9-------9---7-------7-------0----|
G|-7---7---9---7---7-------7--------| -7-------7---7-------7------------|
D|----------------------------------| ----------------------------------|
   * | | | * | | | * | | | * | | |     * | | | * | | | * | | | * | | |   

d|----------------------------------|----------------------------------|
B|-----7----------------------------|-8-p(7)--8---7--------------------|
G|-----7---------------7------------|-7-p(7)--7---7-------7---5---7----|
D|-----0---9---7-7h9---7---7--------|-9-p(7)--9---7-------7---5---7----|
G|---------9---7---7---7---7--------|-7-------7--(7)------7---5---7----|
D|----------------------------------|----------------------------------|
   * | | | * | | | * | | | * | | |    * | | | * | | | * | | | * | | |   


P2: Time 00:18

d|----------------------------------|----------------------------------|
B|----------------------------------|----------------------------------|
G|(x)--7---7---7-------7-------7----|-----7---7---7-------7-------7----|
D|(x)--7---9---7---7---7---9---7----|-----7---9---7---7---7---9---7----|
G|(x)--7---7---7---7--(7)--7---7----|-----7---9---7---7---7---7---7----|
D|----------------------------------|----------------------------------|
   * | | | * | | | * | | | * | | |    * | | | * | | | * | | | * | | |   

d|----------------------------------|----------------------------------|
B|---------8------------------------|-8-p(7)--8---7--------------------|
G|-----7---7---7---7---7---7--------|-7-p(7)--7---7---7----------------|
D|-----7---9---7---7---7---7--------|-9-p(7)--9---7---7---7---9---7----|
G|-----7---7---7---7--(7)--9-h-7----|-7-------7-------7---7---7---7----|
D|----------------------------------|----------------------------------|
   * | | | * | | | * | | | * | | |    * | | | * | | | * | | | * | | |   

d|----------------------------------|----------------------------------|
B|----------------------------------|----------------------------------|
G|----------------------------------|-----7---7---7---7---7---7---7----|
D|-----7---9---7---7---7---9---7----|-----7---9---7---7---7---9---7----|
G|-----7---7---7---7---7---7---7----|-----7---7---7---7---7---7---7----|
D|----------------------------------|----------------------------------|
   * | | | * | | | * | | | * | | |    * | | | * | | | * | | | * | | |   

d|----------------------------------|----------------------------------|
B|----------------------------------|-8---7---8---7--------------------|
G|-----7---7---7---7---7---7--------|-7---7---7---7---7---7---5-s-7----|
D|-----7---9---7---7---7---7--------|-9---7---9---7---7---7---5---7----|
G|-----7---7---7---7---7---9-h-7----|-7-------7--(7)--7---7---5---7----|
D|----------------------------------|----------------------------------|
   * | | | * | | | * | | | * | | |    * | | | * | | | * | | | * | | |   

d|----------------------------------|----------------------------------|
B|---------8-------8----------------|----------------------------------|
G|-7---7---7-------7---7---7--(0)---|-5---5-------7-------7-------4----|
D|-7---7---9-------9---7---7--(0)---|-5---5-------7-------7-------4----|
G|-7---7---7-------7---7---7--------|-5---5-------7-------7-------4----|
D|----------------------------------|----------------------------------|
   * | | | * | | | * | | | * | | |    * | | | * | | | * | | | * | | |   

d|----------------------------------|----------------------------------|
B|----------------------------------|---------1-------1----------------|
G|-----4-s-7---7-------7--(7)s-0----|-----0---0---0---0---0---0---0----|
D|-----4---7---7-------7--(7)--0----|-----0---2---0---2---0---0---0----|
G|-----4---7---7-------7--(7)--0----|-----0--(0)--0--(0)--0---0---0----|
D|----------------------------------|----------------------------------|
   * | | | * | | | * | | | * | | |    * | | | * | | | * | | | * | | |   

d|----------------------------------|----------------------------------|
B|----------------------------------|----------------------------------|
G|-----7---7---7---7---7---7--(0)---|-5---5-------7-------7-------4----|
D|-----7---9---7---7---7---9--(0)---|-5---5-------7-------7-------4----|
G|-----7---7---7---7---7---7--(0)---|-5---5-------7-------7-------4----|
D|----------------------------------|----------------------------------|
   * | | | * | | | * | | | * | | |    * | | | * | | | * | | | * | | |   

d|----------------------------------|----------------------------------|
B|----------------------------------|---------1-------1----------------|
G|-----4-s-7---7-------7--(7)s-0----|-----0---0---0---0---0---0---0----|
D|-----4---7---7-------7--(7)--0----|-----0---2---0---2---0---0---0----|
G|-----4---7---7-------7--(7)--0----|-----0--(0)--0--(0)--0---0---0----|
D|----------------------------------|----------------------------------|
   * | | | * | | | * | | | * | | |    * | | | * | | | * | | | * | | |   


P3: Time: 01:25 

d| ----------------------------------|----------------------------------|
B| -----1-----------------------1p0--|----------------------------------|
G| -----------------------------0-0--|-----0-------------------------0--|
D|0h2---------------------------2-0--|----------------------------------|
G| ----------------------------------|-0--------------------------------|
D| ----------------------------------|----------------------------------|
    * | | | * | | | * | | | * | | |     * | | | * | | | * | | | * | | |   

d| ----------------------------------|----------------------------------|
B| -----1-------------------1p0------|----------------------------------|
G| -------------------------0-0------|-----0-------------------------0--|
D|0h2-----------------------2-0------|----------------------------------|
G| -----------------------------0----|----------------------------------|
D| ----------------------------------|----------------------------------|
    * | | | * | | | * | | | * | | |    * | | | * | | | * | | | * | | |   

d| ----------------------------------|----------------------------------|
B| -----1-----------------------1p0--|----------------------------------|
G| -----------------------------0-0--|-----0-------------------------0--|
D|0h2---------------------------2-0--|----------------------------------|
G| ----------------------------------|-0--------------------------------|
D| ----------------------------------|----------------------------------|
    * | | | * | | | * | | | * | | |     * | | | * | | | * | | | * | | |   

d| ----------------------------------|----------------------------------|
B| -----1-------------------1p0------|----------------------------------|
G| -------------------------0-0------|-----0----------------------------|
D|0h2-----------------------2-0------|-------------0---0---0---0---7----|
G| -----------------------------0----|-------------0---0---0---0---7----|
D| ----------------------------------|----------------------------------|
    * | | | * | | | * | | | * | | |    * | | | * | | | * | | | * | | |   

d|----------------------------------|----------------------------------|
B|----------------------------------|----------------------------------|
G|-----7---7---7-------7-------7----|-----7---7---7-------7-------7----|
D|-7---7---9---7---7---7---9---7----|-----7---9---7---7---7---9---7----|
G|-7---7---7---7---7--(7)--7---7----|-----7---7---7---7---7---7---7----|
D|----------------------------------|----------------------------------|
   * | | | * | | | * | | | * | | |    * | | | * | | | * | | | * | | |   

d|----------------------------------|----------------------------------|
B|----------------------------------|-8---7---8---7--------------------|
G|-----7---7---7---7---7---7--------|-7---7---7---7---7----------------|
D|-----7---9---7---7---7---7--------|-9---7---9---7---7---7---9---7----|
G|-----7---7---7---7--(7)--9-h-7----|-7-------7-------7---7---7---7----|
D|----------------------------------|----------------------------------|
   * | | | * | | | * | | | * | | |    * | | | * | | | * | | | * | | |   


P4: Time: 02:24

d| ----------------------------------|----------------------------------|
B| -----1-----------------------1p0--|----------------------------------|
G| -----------------------------0-0--|-----0-------------------------0--|
D|0h2---------------------------2-0--|----------------------------------|
G| ----------------------------------|-0--------------------------------|
D| ----------------------------------|----------------------------------|
    * | | | * | | | * | | | * | | |     * | | | * | | | * | | | * | | |   

d| ----------------------------------|----------------------------------|
B| -----1-------------------1p0------|----------------------------------|
G| -------------------------0-0------|-----0-------------------------0--|
D|0h2-----------------------2-0------|----------------------------------|
G| -----------------------------0----|----------------------------------|
D| ----------------------------------|----------------------------------|
    * | | | * | | | * | | | * | | |    * | | | * | | | * | | | * | | |   

d| ----------------------------------|----------------------------------|
B| -----1-----------------------1p0--|----------------------------------|
G| -----------------------------0-0--|-----0-------------------------0--|
D|0h2---------------------------2-0--|----------------------------------|
G| ----------------------------------|-0--------------------------------|
D| ----------------------------------|----------------------------------|
    * | | | * | | | * | | | * | | |     * | | | * | | | * | | | * | | |   

d| ----------------------------------|-----------------------------0----|
B| -----1-------------------1p0------|----------------------------------|
G| -------------------------0-0------|-----0---------------------9s11---|
D|0h2-----------------------2-0------|----------------------------------|
G| -----------------------------0----|----------------------------------|
D| ----------------------------------|----------------------------------|
    * | | | * | | | * | | | * | | |    * | | | * | | | * | | | * | | |   

d|-----0---0---0-------0---0---0----|-----0---0---0-------0---0---0----|
B|----------------------------------|----------------------------------|
G|-----11--9---7-------7---7-9s11---|-----11--9---7-------7---7-9s11---|
D|----------------------------------|----------------------------------|
G|----------------------------------|----------------------------------|
D|----------------------------------|----------------------------------|
   * | | | * | | | * | | | * | | |    * | | | * | | | * | | | * | | |   

Repeat the last two bars 5 times then play the following :


   Am I just plain lazy...            Ev- er  Ev- er  Ev- er  Ev- er...
d|----------------------------------|----------------------------------|
B|----------------------------------|----------------------------------|
G|----------------------------------|-------------------------5-s-7----|
D|-7---7---7---7---7---7---7---7----|-7---7---7---7---7---9---5---7----|
G|-7---7---7---7---7---7---7---7----|-7---7---7---7---7---9---5---7----|
D|----------------------------------|----------------------------------|
   * | | | * | | | * | | | * | | |    * | | | * | | | * | | | * | | |   

   Jealous....                        Jealous again....
d|----------------------------------|----------------------------------|
B|---------8-------8----------------|----------------------------------|
G|-7---7---7-------7---7---7--(0)---|-5---5-------7-------7-------4----|
D|-7---7---9-------9---7---7--(0)---|-5---5-------7-------7-------4----|
G|-7---7---7-------7---7---7--------|-5---5-------7-------7-------4----|
D|----------------------------------|----------------------------------|
   * | | | * | | | * | | | * | | |    * | | | * | | | * | | | * | | |   

d|----------------------------------|----------------------------------|
B|----------------------------------|---------1-------1----------------|
G|-----4-s-7---7-------7--(7)s-0----|-----0---0---0---0---0---0---0----|
D|-----4---7---7-------7--(7)--0----|-----0---2---0---2---0---0---0----|
G|-----4---7---7-------7--(7)--0----|-----0--(0)--0--(0)--0---0---0----|
D|----------------------------------|----------------------------------|
   * | | | * | | | * | | | * | | |    * | | | * | | | * | | | * | | |   

d|----------------------------------|----------------------------------|
B|----------------------------------|----------------------------------|
G|-----7---7---7---7---7---7--(0)---|-5---5-------7-------7-------4----|
D|-----7---9---7---7---7---9--(0)---|-5---5-------7-------7-------4----|
G|-----7---7---7---7---7---7--(0)---|-5---5-------7-------7-------4----|
D|----------------------------------|----------------------------------|
   * | | | * | | | * | | | * | | |    * | | | * | | | * | | | * | | |   

d|----------------------------------|----------------------------------|
B|----------------------------------|---------1-------1----------------|
G|-----4-s-7---7-------7--(7)s-0----|-----0---0---0---0---0---0---0----|
D|-----4---7---7-------7--(7)--0----|-----0---2---0---2---0---0---0----|
G|-----4---7---7-------7--(7)--0----|-----0--(0)--0--(0)--0---0---0----|
D|----------------------------------|----------------------------------|
   * | | | * | | | * | | | * | | |    * | | | * | | | * | | | * | | |   

Repeat the last four bars two more times.


P5: Time: 03:39 

d| ----------------------------------|----------------------------------|
B| -----1-----------------------1p0--|----------------------------------|
G| -----------------------------0-0--|-----0-------------------------0--|
D|0h2---------------------------2-0--|----------------------------------|
G| ----------------------------------|-0--------------------------------|
D| ----------------------------------|----------------------------------|
    * | | | * | | | * | | | * | | |     * | | | * | | | * | | | * | | |   

d| ----------------------------------|----------------------------------|
B| -----1-------------------1p0------|----------------------------------|
G| -------------------------0-0------|-----0-------------------------0--|
D|0h2-----------------------2-0------|----------------------------------|
G| -----------------------------0----|----------------------------------|
D| ----------------------------------|----------------------------------|
    * | | | * | | | * | | | * | | |    * | | | * | | | * | | | * | | |   

d| ----------------------------------|----------------------------------|
B| -----1-----------------------1p0--|----------------------------------|
G| -----------------------------0-0--|-----0-------------------------0--|
D|0h2---------------------------2-0--|----------------------------------|
G| ----------------------------------|-0--------------------------------|
D| ----------------------------------|----------------------------------|
    * | | | * | | | * | | | * | | |     * | | | * | | | * | | | * | | |   

d| ----------------------------------|----------------------------------|
B| -----1-------------------1p0------|----------------------------------|
G| -------------------------0-0------|-----0----------------------------|
D|0h2-----------------------2-0------|-------------0---0---0---0---0----|
G| -----------------------------0----|-------------0---0---0---0---0----|
D| ----------------------------------|----------------------------------|
    * | | | * | | | * | | | * | | |    * | | | * | | | * | | | * | | |   

d|----------------------------------|----------------------------------|
B|-1---1---1-------1-------1---0----|-0---0---0-------0-------0---0----|
G|-0---0---0-------0-------0---0----|-0---0---0-------0-------0---0----|
D|-2---2---2-------2-------2---0----|-0---0---0-------0-------0---0----|
G|-0---0---0-------0-------0---0----|-0---0---0-------0-------0---0----|
D|----------------------------------|----------------------------------|
   * | | | * | | | * | | | * | | |    * | | | * | | | * | | | * | | |   

Repeat the last two bars at lib and fade...

End


Lyrics:
  	
Jealous Again

Cheat the odds that made you
Brave to try to gamble at times
Well I feel like dirty laundry
Sending sickness on down the line
Tell you why

'Cause I'm jealous, jealous again
Thought it time I let you in
Yeah, I'm jealous, jealous again
Got no time, baby

Always drunk on Sunday
Try'n to feel like I'm at home
Smell the gasoline burning
Boys out feeling nervous and cold

I'm jealous, jealous again
Thought it time I let you in
Jealous, jealous again
Got no time, baby

Stop, understand me
I ain't afraid of losing face
Stop, understand me
I ain't afraid of ever losing faith in you

Never felt like smiling
Sugar wanna' kill me yet
Find me loose lipped and laughing
Singing songs ain't got no regrets

I'm jealous, jealous again
Thought it time I let you in
Jealous, I'm jealous again
Got no time, baby

Stop, understand me
I ain't afraid of losing face
Stop, understand me
I ain't afraid of ever losing faith in you

Don't you think I want to
Don't you think I would
Don't you think I'd tell you baby
If I only could
Am I acting crazy
Am I just too proud
Am I just plain lazy
Am I, Am I, Am I, ever

Jealous, jealous again
Thought it time I let you in
Jealous, jealous again
Got no time, to let you in
I'm jealous, jealous again
Got no time, to let you in
Jealous, jealous again
Got no time, Baby

*************************************************************************
Tap to rate this tab
 
# A B C D E F G H I J K L M N O P Q R S T U V W X Y Z