Song name
# A B C D E F G H I J K L M N O P Q R S T U V W X Y Z

Black Crowes - Nebakenezer tab

ARTIST:THE BLACK CROWES
SONG:NEBAKANEZER
TABBED BY PAUL MCCARTHY

INTRO

E----------------------------------------------------|
A----------------------------------------------------|
D-------------------2--------------------------------|
G-------2b4r2p0-2p0---0------------------------------|
B-3p2p0----------------------------------------------|
E----------------------------------------------------|
REPEAT THIS A FEW TIMES

VERSE

              =====      =====
E-------------3-3-3------3-3-3----------------------|
A-1-1-1/3-3-3-5-5-5------5-5-5----------------------|
D-3-3-3/5-5-5-5-5-5------5-5-5----------------------|
G-3-3-3/5-5-5-------5VVV-------5VVV-----------------|
B---------------------------------------------------|
E---------------------------------------------------|

I'M NOT TOO SURE ABOUT THE CHORUS, I THINK THERES A SLIDE
INVOLVED SOME HOW BUT THE POWER CHORDS ARE

E--------------------------------------------|
A-1-1-3-3-8--8-------------------------------|
D-3-3-5-5-10-10------------------------------|
G-3-3-5-5-10-10------------------------------|
B--------------------------------------------|
E--------------------------------------------|

KEY
B - BEND
V - VIBRATO (SHAKE THE STRING WHILST HOLDING THE NOTE)
/ - SLIDE
= - ADD AN ACCENT BY PALM MUTTING
R - RELEASE A BEND
H -HAMMER

ANY CORRECTIONS, ADDITIONS OR GENERAL COMMENTS,
PLEASE SEND TO KORINA62@AOL.COM CHEERS
Tap to rate this tab
# A B C D E F G H I J K L M N O P Q R S T U V W X Y Z