Song name
# A B C D E F G H I J K L M N O P Q R S T U V W X Y Z

Black Crowes - Sting Me tab

OKAY MY FAVORITE TBC SONG!

Sting Me

V=	Slight Vibrato
PO=	Pull-off
S=	Slide
________________________________________________________________________
RICH'S GUITAR

OPEN G TUNING (DBGDGD)

Intro 1

		    v	       po     s       v		     v
D-x-x-x------0--0---------x-x---------0--------------------------------|
B-x-x-x------0--0---------x-x--2-0----2-1--------------------------x-x-|
G-x-x-x------0--0------0--x-x--3-0------------------------0------0-x-x-|
D-x-x-x------0--0---3-----x-x-----------------------2--3------3----x-x-|
G-x-x-x------0--0---------x-x--------------0--3--0-----------------x-x-|
D----------------------------------------------------------------------|

 1.2.3...


 po    spo    po		      po    spo   po
---------------------------------x-x--------------0-0-x------00------0---0-|
-2-0---2-1-0--1-0----------------x-x-2-0---2-1-0--1-0-x--111-00-1111-0-1-0-|
-3-0---3-2-0--0-0-------0-----0--x-x-3-0---3-2-0--0-0-x--333-00-3333-0-3-0-|
--------------2-0----------3-----x-x--------------2-0-x--222-00-2222-0-2-0-|
-------------------3--4----------x-x--------------0-0-x--000-00-0000-0-0-0-|
---------------------------------------------------------------------------|
				Clap 2

Intro 2 (With Drums and Bass)


	    po         b r po	     b r po	   (Last time)
---------------------|-------------|--------------------------------|
---------------------|-------------|---------1-1--------------------|
-0-0-0-0---5-0----0--|-2-2-0----0--|-2-2-0--------------------------|
-0-2-3-2----------2--|-------2-----|-------2-----3-2-0--------------|
-0-0-0-0-------0--0--|-------------|-------------------3-2-0-0---0--|
---------------------|-------------|---------------------------3----|


Verse

	 s		h po po
-0--5-------5-5-----------------------------------------------------------|
-0-----6-5--5-3------------------------------1-------1--------------------|
-0---------------5--3---3-5-3-0-----------------------------------0-------|
-0-------------------------------5-5--2-5--3----3--2---2------------------|
-0--------------------------------------------------------3-0-3-0----3-0--|
--------------------------------------------------------------------------|


Pre-Chorus 			Chorus		Chorus Last Time

---0--------0--------0-------|--333--10...|--333--10...5555555---|
---1--------1--------0-------|--333--10...|--333--10...5555555---|
---0--------0--------0-------|--333--10...|--333--10...5555555---|
---3--------2--------0-------|--333--10...|--333--10...5555555---|
---0--------0--------0-------|--333--10...|--333--10...5555555---|
-----------------------------|------------|----------------------|

Solo Interlude
------------------------------|
---------5-3-----5-3----5-3---|
---------5-3-----5-3----5-3---|
---555--------5------5------5-|
---000------------------------|
------------------------------|


Groove Interlude-
----------------------|
----------------------|
--3-------------------|
-------5----5---3-5---|
----0-----0-----------|
----------------------|


Intro 1
Intro 2
Verse (x6)
Pre-Chorus (x4
Chorus (x4)
Verse (x6)
Pre-Chorus (x4
Chorus (x4)
Solo Interlude (x4)
Chorus (solo still going) (x4)
Groove Interlude (x4)
Pre-Chorus (x4
Chorus (x8)


You really got to listen to the rhythm to get this one. I recorded a version if you want 
take a look and see how I do it (pretty close). E-mail me @ kmcypress@msn.com to get it.

-kmcypress

Marc's guitar coming soon!
Tap to rate this tab
# A B C D E F G H I J K L M N O P Q R S T U V W X Y Z