Song name
# A B C D E F G H I J K L M N O P Q R S T U V W X Y Z

Black Crowes - Cursed Diamond tab

-------------------------------------------------------------------------------
			     Cursed Diamond - Black Crowes
-------------------------------------------------------------------------------
Tabbed by: Marco Antonio Jaguaribe Costa
Email: marco.antonio.costa@gmail.com

Tuning: DGDGBD

Intro/Verse riff - no timing ( or structure, or repetitions,...) here, figure
it out yourselves. :)

||--0--0--0--0--0------------|
||-12-10-10--8-10-10-7---6-5-|
||--0--0--0--0--0--7-7---5-5-|
||-12-11-10-10-10--9-7---7-5-|
||--0--0-10--9--8--7-7---5-5-|
||---------------------------|
"I lose myself....."

Chorus

||---0-----0---|
||---0-----0---|
||---0-x---0-x-|
||---0-3---0-2-|
||-0-0-2-0-0-3-|
||-----x-----x-| twice, then
"I wanna shine for you..."

||---0-----0---|
||---0-----0---|
||---0-x---0-x-|
||---0-5---0-5-|
||-0-0-4-0-0-5-|
||-----x-----x-|
"Your trouble now is mine.."

Pre-Verse/Post-chorus/comebackalloveragain

||---------|
||-7--5--4-|
||-7--5--4-|
||-7--5--4-|
||-7--5--4-|
||---------|
"Hold me baby, blablabla..."

No solo, if you know it, send it to my email and I'll give you credit for it in big
friendly letters above my own name. :)

Hope this helps
Tap to rate this tab
# A B C D E F G H I J K L M N O P Q R S T U V W X Y Z