Song name
# A B C D E F G H I J K L M N O P Q R S T U V W X Y Z

Black Crowes - Struttin Blues tab

-------------------------------------------------------------------------------
			    Struttin Blues- Black Crowes 
-------------------------------------------------------------------------------
Tabbed by:Cman
Email:rollingstone5194@aol.com

Tuning:
    Guitar 1 Intro/Verse Repeat
e|-3--2-----------------------------------------------------------|
B|-3--3-----------------------------------------------------------|
G|-0--2-----------------------------------------------------------|
D|-0--0--2-2-4-2--2-2-4-2-----------------------------------------|
A|-2-----0-0-0-0--0-0-0-0-----------------------------------------|
E|-3--------------------------------------------------------------|

e|----2------------------2----------------------------------------|
B|----3------------------3----------------------------------------|
G|-4--2----------2-------2--4b6r4-2-2-----------------------------|
D|-5--0--2-2-4-2-0-4--5--0---------5------------------------------|       
A|-5-----0-0-0-0---0--5-------------------------------------------|         
E|-3------------------3-------------------------------------------|
Chours strum E chord, On second Chorus Strum E for 2 measure then F# and move the
all the lead up two frets
e|-0--2h4-4-2-0-2-0------------------------------------------|
B|-0---------------------------------------------------------|
G|-1---------------------------------------------------------|
D|-2---------------------------------------------------------|
A|-2---------------------------------------------------------|
E|-0---------------------------------------------------------|
Solo just figure the start out
e|----19--------------------------------------------------------|
B|-20b22-X6------------------------------------------------------|
G|---------------------------------------------------------------|
D|---------------------------------------------------------------|
A|---------------------------------------------------------------|
E|---------------------------------------------------------------|
Bridge thing after 3rd chours Guitar 1 Repeat this 4 times
e|---------------------------------------------------- -------|
B|----10--10-10----10------------------------------------------|
G|-9-9------7---9p7--------------------------------------------|
D|-----------------7-------------------------------------------|
A|-------------------------------------------------------------|
E|-------------------------------------------------------------|
Guitar 2 play this twice (the last two times of guitar 1's bridge)
e|-------------------------------------------------------------|
B|-------------------------------------------------------------|
G|-0h2-12h14-0h2-----------------------------------------------|
D|-------------------------------------------------------------|
A|-------------------------------------------------------------|
E|-------------------------------------------------------------|
Start of outro solo with wah
e|---------------------------------------------------------|
B|-----10-x-10------10-13p10-------------------------------|
G|-9s11--------9s11----------9s11-6----2-2-----------------|
D|----------------------------------2h4--------------------|
A|---------------------------------------------------------|
E|---------------------------------------------------------|

Tap to rate this tab
# A B C D E F G H I J K L M N O P Q R S T U V W X Y Z