Song name
# A B C D E F G H I J K L M N O P Q R S T U V W X Y Z

Black Crowes - Only Halfway To Everywhere tab

i got almost 80% of the song down, sorry, but i don't got the solo. here it is-- 

    With Wah 
E|--------------------------|-----------------|
B|--------------------------|-----------------|   
G|--------------------------|-----------------|    X2
D|-------8-10-12-10-8-------|---------10~~8~~-|
A|-8-10----------------10-8-|-8--10-----------|
E|--------------------------|-----------------| 

    Verse 
E|-----------------|-------------|-------------|-------------|
B|-10-10-x-x-10-10-|-9-9-x-x-9-9-|-8-8-x-x-8-8-|-7-7-x-x-7-7-|
G|-10-10-x-x-10-10-|-9-9-x-x-9-9-|-8-8-x-x-8-8-|-7-7-x-x-7-7-|
D|-9--9--x-x-9--9--|-8-8-x-x-8-8-|-7-7-x-x-7-7-|-6-6-x-x-6-6-|
A|-10-10-x-x-10-10-|-9-9-x-x-9-9-|-8-8-x-x-8-8-|-7-7-x-x-7-7-|
E|-----------------|-------------|-------------|-------------| 
         D9               F#9           F9             E9      

E|------------|   
B|-7-7-9-10~~-|
G|-7-7-9-10~~-|    Do this at the end to begin the chord progression again 
D|-6-7-8-9-~~-|    
A|-7-8-9-10~~-|    Repeat the progression throughout the verse with wah 
E|------------|


                        Chorus 
E|-----------|
B|-----------|
G|-----------|
D|-3---4--55-|
A|-3---4--55-|
E|-1---2--33-|   


        That's all I got for the chorus, if i get anymore i'll post  


                    Rock On Amoricans!!










Tap to rate this tab
# A B C D E F G H I J K L M N O P Q R S T U V W X Y Z