Guitaretab - guitar tabs
Song name
# A B C D E F G H I J K L M N O P Q R S T U V W X Y Z

Black Crowes - Thick N Thin tab

Black Crowes
Album: Shake Your Money Maker
Song: Thick 'N' Thin
Tabbed by Messiah01


I just learned this, but I dont got the lead part down. When I play the lead, I just 
in C with a Chuck Berry feel. Here it is, enjoy

E|-----------------|
B|-----------------|
G|-----------------|
D|-5-5-7-5-7-5-7-5-|  Intro/Verse, Chris plays this
A|-3-3-3-3-3-3-3-3-|
E|-----------------|
         C5

E|------------------------|
B|------------------------|
G|-10-10-10-10--9-7-5-2-5-|   Pre-Chorus Repeat 3x
D|-10-10-10-10--9-7-5-2-5-|
A|-8--8--8--8---7-5-3-0-3-|
E|------------------------|
  F5 F5 F5 F5 E5 D5 C5 A5 C5
[ Tab from: http://www.guitaretab.com/b/black-crowes/96082.html ]
E|-------------------------|
B|-------------------------|
G|3------------------------|  Chorus Repeat 2x
D|3-----3----5-5-7-5-7-5-7-|
A|1-----3----3-3-3-3-3-3-3-|
E|------1------------------|
  Bb5  F5         C5

   Back to Intro/Verse x1
   Pre-Chorus x3
   Chorus x4

E|------------------------------------------------------------------|
B|------------------------------------------------------------------|
G|------------------------------------------------------------------|
D|-Just make sounds like a chainsaw by sliding up and down the neck-| Bridge
A|-or just solo in C at this point for 4 measures-------------------|
E|------------------------------------------------------------------|
                               4x

   Pre-Chorus x2
   Bridge x6
   Pre-Chorus x1
   Chorus x4

                                   Enojy, Rock On Amoricans
Related for Thick N Thin tab
Advertisement will be closed in 10 seconds