Song name
# A B C D E F G H I J K L M N O P Q R S T U V W X Y Z

Black Dahlia Murder - Spite Suicide tab

Spite Suicide Solo
The Black Dahlia Murder
Miasma


Tuning: C Standard.
Scale Used: C Harmonic Minor.

------19h20p19------19------19--17--------------|
----------------22------20----------19--20------|
-/20----------------------------------------17--|
------------------------------------------------|
------------------------------------------------|
------------------------------------------------|
 
-----/19h20p19----18/24p23p20--19p17p15\--|
-/16-----------22-------------------------|
------------------------------------------|
------------------------------------------|
------------------------------------------|
------------------------------------------|

  
-------19h20p19------19------19--17-------------|
--/16------------22------20----------20--17p16--|
------------------------------------------------|
------------------------------------------------|
------------------------------------------------|
------------------------------------------------|

Vibrate the tremolo bar like crazy here until the end.
-------------------------------------------------------|
--17----16------------16-------------------------------|
----------------17-------------------------------------|
--------------------------------13----/14----13--------|
-------------------------/15---------------------------|
-------------------------------------------------------|

     
------------------------------------------------------|
------------------------------------------------------|
----------------------12\-----------------------------|
--------13------14------------/13-----14----13--------|
-/15--------------------/15---------------------------|
------------------------------------------------------|
   
-------------------------------||
-------------------------------||
--------14-----16----17--------||
-/17---------------------------||
-------------------------------||
-------------------------------||

Thanks for looking :]
Tap to rate this tab
# A B C D E F G H I J K L M N O P Q R S T U V W X Y Z