Guitaretab - guitar tabs
Song name
# A B C D E F G H I J K L M N O P Q R S T U V W X Y Z

Black Dahlia Murder - Everything Went Black tab

Black Dahlia Murder
Everything went black
Nocturnal

Tuning: C standard
BPM: 216

|------------------------------------------------------------------------------------|
|------------------------------------------------------------------------------------|
|------------------------------------------------------------------------------------|
|------------------6----6----5----5--------------------------5----5----3-----3-------|
|------------------7----7----5----5--------------------------5----5----3-----3-------|
|-0----0----0------4----4----6----6----------0----0----0-----6----6----4-----4-------|

|-----------------------------------------------------------------------------------|
|-----------------------------------------------------------------------------------|
|-----------------------------------------------------------------------------------|
|------------------2----2----2----2------------------------4----4-------------------|
|------------------2----2----4----2------------------------7----7----6----9~ ~ ~ ~ -|
|---0----0----0----0----0----0----0----------0----0----0---6----6----6----7~ ~ ~ ~ -|

|------------------------------------|
|------------------------------------|
|------------------------------------|
|-2---5---6--------------------------|
|-2---5---6--------------------------|
|-0---3---4--------------------------|
[ Tab from: http://www.guitaretab.com/b/black-dahlia-murder/104162.html ]
|-----------------------------------------------------------------------------------------|
|-----------------------------------------------------------------------------------------|
|-----------------------------------------------------------------------------------------|
|------------------------------------6----------------------------------------------------|
|--------------6---------------------------------6-----------------------------------6----|
|-4---7---4-------4---4---7---4-------4---4--------4---4---7---4---7---4---4-------4---4--|

|------------------------------------------------------------------------------------|
|------------------------------------------------------------------------------------|
|------------------------------------------------------------------------------------|
|-6/--8---(8)-(8)---8---(8)-(8)---8/--11\---9--0--0--8--0--60---5 ~ ----------------|
|-4/--6---(6)-(6)---6(6)-(6)--------------------------------------------------------|
|------------------------------------------------------------------------------------|

|-----------------------------------------------------------------------------------------------|
|-----------------------------------------------------------------------------------------------|
|-----------------------------------------------------------------------------------------------|
|-8---5--------------------------------------------------------------------------8--------------|
|----------0---6---7--------------------------5-----------------5--------------6------------5---|
|-----------------------4/--5----(0)--(0)---3----(0)--(0)---2---(0)--(0)------(0)--(0)------3---|
Related for Everything Went Black tab